Аккорды «Lillix»

Lillix
Lillix - канадская поп-группа, образовалась в 1997 году под именем Tigerlily. В состав группы вошли Tasha-Ray Evin, Lacey-Lee Evin, Louise Burns и Sierra Hills. В 2001 году группа подписала контракт с Maverick Records и поменяли название Lillix. В 2002 году группу покинула Sierra Hills, на ее место взяли Kim Urhahn, а позже Alicia Warrington. В конце 2006 года сестры Evin заявили о создании дуэта, так как группу покинули Burns и Warrington, но в начале 2007 года в группу пришли два новых участника,… Читать полностью... Lillix - канадская поп-группа, образовалась в 1997 году под именем Tigerlily. В состав группы вошли Tasha-Ray Evin, Lacey-Lee Evin, Louise Burns и Sierra Hills. В 2001 году группа подписала контракт с Maverick Records и поменяли название Lillix. В 2002 году группу покинула Sierra Hills, на ее место взяли Kim Urhahn, а позже Alicia Warrington. В конце 2006 года сестры Evin заявили о создании дуэта, так как группу покинули Burns и Warrington, но в начале 2007 года в группу пришли два новых участника, что послужило началом для восстановления группы. 27 мая 2003 года вышел дебютный альбом Lillix под названием "Falling Uphill". В 2004 году группа завоевала 2 премии. Второй альбом "Inside the Hollow" вышел в Канаде в августе 2006 года. В апреле 2007 года появилась информация о том, что в группу взяли Аshley Grobell и Eric Hoodicoff. 14 июля 2007 года группа выступила на фестивале Nakusp Music Festival. Скрыть...
Популярные аккорды Lillix:
алфавиту | просмотрам | случайно
  • This is song is very simple and fun to play. It's the same 3 easy chords all the
    way through (except for the opening lick). Here are the 3 chords you'll need to
    know:
    
    E5 022xxx
    A5 577xxx
    D5 x577xx
    D  x5775x
    
    For beginners…
  • Intro:
                 Am  F  C  G
    It's about life, 
                 Am  F  C  G
    it's about fun
    
    
      Part I :
    C	   G
    I hate you, I love you
    Am             F           C
    I just can't remember to forget you
             G	   Am
    Who are…
  • Example:
    am-> x01200
    
    x- 6th string, not played
    0- 5th string, open (not fretted)
    1- 4th string, 1st fret
    2- 3rd string, 2nd fret
    0- 2nd string, open
    0- 1st string, open
    -----------------------------------------
    
    Em: 022000…
  • Intro/riff:
    (distortion)
    e|---------------------------------------------|
    B|---------------------------------------------|
    G|-9-------------8-8--------9-9-------11-11----|
    D|-9--------6666--6--6--7777-7-7--9999--9---9--|
    A|-7-777777------------------------------------|
    E|---------------------------------------------|
    
    e|-------------------------------------------|…
  • INTRO:  F#   A B 
    
    VERSE:  
    F#                  A               B
    Dirty bedclothes, a spider creeping up the wall
    F#                 A              B
    Moldy pizza, sits where I left it on the floor
    
    A           B…
  • Tuning: normal eadgbe
    
    
    E-----------------3-------------|------------------3------------------
    B--------3------------3-------3-|--------3-------------3--------3-----
    G-------------------------0-----|---------------------------0---------
    D-------------0-----------------|-------------0-----------------------
    A-------------------------------|-------------------------------------
    E---3---------------------------|---2---------------------------------
    
    E-----------------3--------------|------------------|---------3-------
    B--------3------------3-------3--|---------------3--|------------3----
    G-------------------------0------|-----------0------|------2----------
    D-------------0------------------|-------2----------|---3-------------
    A--------------------------------|---3--------------|-----------------
    E---0----------------------------|------------------|-----------------
    
    E-----------------3-------------|------------------3------------------
    B--------3------------3-------3-|--------3-------------3--------3-----
    G-------------------------0-----|---------------------------0---------
    D-------------0-----------------|-------------0-----------------------
    A-------------------------------|-------------------------------------
    E---3---------------------------|---2---------------------------------
    
    E-----------------3--------------|-----------3---------------3--------
    B--------3------------3-------3--|------------------3-------------3---
    G-------------------------0------|-----------------------0------------
    D-------------0------------------|-------2----------------------------
    A--------------------------------|---3--------------------------------
    E---0----------------------------|------------------------------------…
  • Verse 1:
    
    133211 Tomorrow's just another day, a-
    133111 nother way to spend my day
    355333 All 
    255222 By my-
    x02210 self
    
    133211 Starin' at the tv screen
    133111 Flippin' thru my magazines
    355333 Every-
    255222 thing is un-
    x02210…
  • For now, I only have the guitar solo which comes in around 2:40
    
    E|-10-13-10-15-10-13-10-17-15-13--
    B|--------------------------------
    G|--------------------------------
    ..
    
    (slower part)
    
    E|--------------------------------
    B|-14--12s/9--10-12-14-12--9--10--
    G|--------------------------------
    ..
    
    (fast…
  • Riff:
    (clean)
    E|---8---8---------
    B|-8---8-----8------
    
    
    E|-10-10-10-------12-12--10---8-8---
    B|----------8-------------------8--- ...
    
    Chords used:
    
    C | x32010	
    C2| x32030
    F | x33211
    
    C5| x3555x
    F5| 1332xx
    
    Verse 1:
    (clean)
    
    C,…
  • intro:
    
    E5  022xxx
    I'm never gonna be what you wanna see always gotta gotta be me and free
    
    355433 (picking)
    right or wrong
    
    254433
    you'll be gone
    
    
    022xxx
    x355xx- 577xxx
    
    
    Verse 1:
    
    022xxx  Well I've heard it all before…
Наверх