Аккорды «Linkin Park»

Linkin Park
Linkin Park — популярная американская альтернативная рок-группа. Основана под названием SuperXero, в 1996 году была переименована в Xero, позже использовались названия Hybrid Theory и Linkin Park. Существуя с 1999 года под названием Linkin Park, группа продала более 50 миллионов экземпляров альбомов и два раза удостоилась награды Грэмми. Группа обрела успех благодаря дебютному альбому 2000 года под названием Hybrid Theory, проданному тиражом в 25 миллионов экземпляров (в 2010 году он обрёл «мульти… Читать полностью... Linkin Park — популярная американская альтернативная рок-группа. Основана под названием SuperXero, в 1996 году была переименована в Xero, позже использовались названия Hybrid Theory и Linkin Park. Существуя с 1999 года под названием Linkin Park, группа продала более 50 миллионов экземпляров альбомов и два раза удостоилась награды Грэмми. Группа обрела успех благодаря дебютному альбому 2000 года под названием Hybrid Theory, проданному тиражом в 25 миллионов экземпляров (в 2010 году он обрёл «мульти бриллиантовый» статус, присуждаемый RIAA). Следующий студийный альбом, Meteora, повторил, хоть и не превзошел успех предыдущего, лидируя в 2003 году в чарте Billboard Top 200. Деньги, полученные от продаж альбома «Meteora», группа использовала в благотворительных целях во всем мире. Третий альбом Minutes to Midnight, занявший первые места чартов в 32 странах, стал шестикратно платиновым и лидером продаж релизов, выпущенных 2007 году по всему миру. 14 сентября 2010 года вышел четвертый альбом группы A Thousand Suns. Первый сингл The Catalyst стал лидером Modern Rock и Mainstream Rock чартов Billboard. Группа была основана в 1996 году двумя одноклассниками Майком Шинодой и Брэдом Дэлсоном. Официально Linkin Park как группа стали выступать только в 1999. Вскоре в ее составе были Майк, Брэд, Джо Хан, Роб Бурдон, Феникс (Дэйв Фаррелл) и Марк Уэйкфилд, а сам коллектив стал называться Xero. Несмотря на ограниченные ресурсы, ребята начали запись нескольких песен в спальне Шиноды, которая и стала первой студией группы. После отказов многих лейблов от контракта с группой, напряжений и недовольства в ней становилось все больше. Понимая, что у этой группы нет будущего, Марк покинул коллектив в поисках других проектов. Дэйву Фарреллу также пришлось оставить их, так как у его второго проекта начался тур. Xero затратили значительное время на поиски замены вокалу Марка, пока ребята не узнали об одном вокалисте, проживающем в Аризоне Честере Беннингтоне. Через своего знакомого, Джеффа Блю, вице-президента Zomba Music, музыканты позвонили Беннингтону и попросили выслать запись его вокала на демо-кассете. Беннингтон, оторвавшись от празднования своего 23-го дня рождения, записал демо и дал прослушать его ребятам по телефону. Его уникальный голос произвёл на группу огромное впечатление. На следующий день Честер прилетел в Лос-Анджелес. После того как Честер согласился присоединиться к группе, она стала называться Hybrid Theory. Идея о смешивании стилей вокала дала толчок для сочинения нового материала, что помогло возродить группу. Наступили времена перемен. У ребят возникли проблемы с британской электронной группой, которая имела название Hybrid и обвиняла их в плагиате, поэтому Честер Беннингтон придумал новое название для группы — Linkoln Park, потому что он постоянно ходил в студию именно через этот парк в Лос-Анджелесе. Но из-за того, что такой домен в интернете был занят и его выкуп стоил очень дорого, группа назвалась Linkin Park. В 1999 году группе удалось заключить контракт с Warner Bros. Records. 24 октября 2000 года группа выпустила дебютный альбом "Hybrid Theory", содержавший материал, копившийся много лет. Альбом стал очень успешным, продался тиражом 4 млн 800 тыс. копий за первый год в США, 8 милл. в мире и получили номинацию на «Грэмми» как лучший рок-альбом года. За трек "Crawling" группа получила первую статуэтку Гремми в номинации "Лучшая хард-рок запись". Песни с альбома «One Step Closer», Crawling» и «In the End» имели успех в мировых хит-парадах, а клип «In The End» на церемонии MTV VMA 2002 получил награду как лучшее рок видео года, причем клип также номинировался на видео года. В 2001 году группа провела тур по США, неоднократно выступая с известными рэперами, а также приняла участие в фестивале Ozzfest. В общей сложности за тот год группа отыграла 320 концертов и выпустила DVD "Frat Party at the Pankake Festival". 30 июля 2002 года вышел альбом ремиксов на дебютный альбом по названием "Reanimation", который попал на второе место в Billboard Top 200. Группа получила 2 премии европейского MTV и победу в номинации "Прорыв года" на MTV Asia Awards. 24 марта 2003 года вышел второй альбом группы под названием "Meteora", возглавивший также чарт Billboard по продажам альбомов. Видеоклипы на песни «Somewhere I Belong», "Faint", «Numb» и «Breaking The Habit» транслировались мировыми музыкальными каналами и занимали первые места в хит-парадах. Инструментальный трек «Session» был номинирован на Грэмми как «Лучшее инструментальное рок-исполнение» 2003 года. Также альбом получил ряд наград: премию MTV за лучшее рок видео («Somewhere I Belong») и Radio Music Awards за лучшую песню («Numb»). 30 ноября 2004 года вышел совместный mush up альбом группы с рэпером Jay-Z. Сингл "Numb/Encore" стал одним из главных хитов года и удостоился на Гремми 2006 победы в номинации "Лучшее рэп сотрудничество". 15 мая 2007 года вышел третий студийный альбом "Minutes to Midnight", с которым группа отошла от прежнего стиля нью-метал и приблизилась по звучанию к року. Значительно уменьшилось число речитативных вставок, музыка стала мелодичнее. Поклонники группы восприняли альбом неоднозначно, оценки разнились от восторженных до крайне негативных. Честер Беннингтон в интервью сказал, что на альбоме "Meteora" группа была вынуждена следовать давлению лэйбла из-за успеха первого альбома, ориентируясь на стиль «Hybrid Theory», но сейчас, с новым звучанием, Linkin Park "чувствует себя комфортно". Сингл "What I've Done" стал первым синглом группы, попавшим в топ 5 Billboard Hot 100 и по окончанию года стал самым продаваемым альбомов из выпущенных в 2007 году с отметкой свыше 4 миллионов копий. 1 ноября 2007 года Linkin Park были удостоены премии MTV EMA в номинации «Лучшая группа», 7 сентября 2008 года стали лауреатом премии MTV VMA в номинации «Лучшее рок видео» за «Shadow Of The Day», 2 года подряд становились победителями American Music Awards в номинации "Лучшая альтернативная группа" и в 2009 получили награду в номинации "Best World Stage Live Performance" на европейских наградах MTV. Также группа стала хэдлайнером Rock Am Ring 2007, совместно с Smashing Pumpkins. 5 июня 2007 Linkin Park отыграли концерт в Санкт-Петербурге, а 6 июня 2007 в Москве, в СК Олимпийский. На разогреве у них выступила российская группа Jane Air. 26 июля 2009 года группа снова дала концерт в Санкт-Петербурге, на разогреве выступала российская группа Lumen. Состав группы: -Честер Беннингтон (Chester Bennington) — вокал -Роб Бурдон (Rob Bourdon) — ударные -Брэд Делсон (Brad Delson) — гитара -Джо Хан (Joe Hahn) — диджей -Майк Шинода (Mike Shinoda) — вокал, MC, клавишные, ритм-гитара -Дэйв Фаррелл (Dave Farrell) — бас-гитара Бывшие участники: -Кайл Кристнер (Kyle Christner) — Бас-гитара. Был басистом в группе Nosedive. Сейчас играет ска-панк. -Скотт Козел (Scott Koziol) — бас-гитара. -Марк Уэйкфилд (Mark Wakefield) — Вокал. Работает в Velvet -Hammer Management. Менеджер группы Taproot, раньше работал с группой System of A Down. Дизайнер обложки альбома «Toxicity», группа System of A Down Студийные альбомы: -Hybrid Theory (2000) -Meteora (2003) -Minutes to Midnight (2007) -A Thousand Suns (2010) -Living Things (2012) Демо и EP записи: -Xero демо запись (1997) -Hybrid Theory EP (1999) -In the End: Live & Rare (2002) -Live from SoHo (2008) -Songs from the Underground (2008) Альбомы ремиксов: -Reanimation (2002) -Collision Course (вместе с Jay-Z) (2004) DVD, концертные CD -Frat Party at the Pankake Festival (2001) -Reanimation (2002) (DVD-Audio) -The Making of Meteora (2003) (Ограниченный выпуск) -Live in Texas (2003) -Collision Course (2004) -Minutes to Midnight (2007) (Ограниченный выпуск) -Road to Revolution: Live at Milton Keynes (2008) Интересные факты: 1) На многих сайтах можно найти песню Linkin Park & X-Ecutioners — It’s Going Down. Однако на самом деле при записи студийной версии этой песни от Linkin Park участвовали только Майк Шинода и Джо Хан. 2) На многих сайтах можно найти демо-версию Points of Authority — Vertical Limit. На самом деле это Points of Authority (Second Mix) — Points of Authority с несколько изменённым текстом. К фильму Vertical Limit песня не имеет никакого отношения. Эта версия Points of Authority была саундтреком к фильму Little Nicky. 3) На CD «Hybrid Theory EP» (LPUnderground 1.0) есть песня Part Of Me. Сама песня Part Of Me длится около 4-5 минут, а после неё сразу же начинается музыка, похожая на ту, что есть в песне Session. 4) В Интернете можно найти разные версии студийных («неживых») демо-композиций Esaul и Super Xero, выпущенных в тот момент, когда группа ещё носила название Hybrid Theory. Отличия в версиях несущественны: в ранней версии Esaul Честер в конце кричит слова «Stay away!» вместо «Go away!», а в ранней версии Super Xero Майк перед началом песни произносит шёпотом слова «So… what do you think?». Вторые версии демок содержатся в демо-альбоме Hybrid Theory Demo (1999). 5) Linkin Park поблагодарили Korn в буклетах к Hybrid Theory, Reanimation и Meteora. ____________________________Официальные сайты_______________________________ www.linkinpark.com | www.lpunderground.com | www.lpstreetteam.com | www.mikeshinoda.com www.cbennington.com | www.fortminor.com | www.myspace.com/linkinpark _______________________________Фан-сайты____________________________________ www.lp-ru.com | www.linkinpark.ru | www.linkinparkru.com | www.projektrevolution.ru | www.deadbysunrise.ru | www.lprussia.com | www.deadbysunrisemusic.ru Скрыть...
Популярные аккорды Linkin Park:
алфавиту | просмотрам | случайно
  • Бас и гитара настроены в ре(D).!!!!
    
    Вступление:
    
    Гитара и бас играют вместе. На 8раз бас замолкает.
    
    Гитара:
    
    E|--6--------|
    B|-----6-9-6-|
    G|-----------|
    D|-8---------| x 8 раз
    A|-----------|
    D|-----------|
    
    Бас:
      Bb…
  • Вступление и припев (distortion)
    
      Dm Am Gm  Am Fm
    E|-5-12-10--12-8--|
    B|-5-12-10--12-8--|
    G|-7-14-12--14-10-|
    D|-7-14-12--14-10-|
    A|-5-12-10--12-8--|
    E|-5-12-10--12-8--|
    
    I am a little bit of loneliness a little bit of…
  • Intro (Hard Distortion)
    
    E|---------|
    B|---------|
    G|-5-1---3-|
    D|-7-3-1-5-|
    A|-7-3-3-5-|
    E|-----3---|
    
    Version
    
    E|---------|
    B|---------|
    G|-5-1---3-|
    D|-7-3-1-5-|
    A|-7-3-3-5-|
    E|-----3---|
    
       ^^^^^^^ (Palm Muting)
    
    Pre-Chorus
    
    E|---------|
    B|---------|
    G|-1-3-5-5-|
    D|-3-5-7-7-|
    A|-3-5-7-7-|
    E|---------|…
  • Em  C       G         D           Em
    Memories consume like opening the wounds
        C          G      D
    I'm picking me apart again
    Em  C        G
    You all      assume
        D               Em
    I'm searching in my room
    C…
  • Intro,Chorus (distortion), Куплет :
    
       Gm Dm# Am# Fm
    E|--3--6--6---8--|
    B|--3--6--6---8--|
    G|--3--8--6---10-|
    D|--5--8--8---10-|
    A|--5--6--8---8--|
    E|--3--6--6---8--|
    
    1 - Pre-chorus
    
       Dm# Fm# Gm Am#  Dm# Fm#
    E|--6--8---3--6-----6---8--|
    B|--6--8---3--6-----6---8--|
    G|--8--10--3--6-----6---8--|
    D|--8--10--5--8-----8---10-|
    A|--6--8---5--8-----8---10-|
    E|--6--8---3--6-----6---8--|
    
    2-…
  • F#m
    Here we go for the hundredth time, hand grenade pins in every line
    E
    Throw 'em up and let something shine, going out of my fuckin mind
    F#m
    Filthy mouth / no excuse, find a new place to hang this news
    E
    String…
  • Повторяется всю песню:
    
    E|------------------------------------------------|
    B|------------------------------------------------|
    G|------------------------------------------------|
    D|---4-3-4--------4-3-4--------4-3-4--------4-3-4-|
    A|-6------------6------------4------------4-------|
    E|------------------------------------------------|
    
    Примерно…
  • Intro:
    Eb|--10----12----13----12----10----12----13----12-------|
    Bb|-----10----10----10----10----10----10----10----10----|
    F#|-----------------------------------------------------|
    C#|-----------------------------------------------------|
    G#|-----------------------------------------------------|
    C#|-----------------------------------------------------|…
  • Intro: D5,D#5,D5
    
    Pre Chorus: A5,D5,D#5,D5
    
    Chorus: A5,F5,D5
    
    Bridge: D#5,A5
    
    Verse:
    
    What do I do to ignore them behind me?
    Do I follow my instincts blindly?
    Do I hide my pride / from these bad dreams
    And give in to sad…
  • Dropped D and tune down 1/2 step
    m = palm mute
    
    Verse 1                                   Fill
    eb--------------------------------------|------------------
    Bb--------------------------------------|------------------
    Gb-------4-4-4-5-4-2--------------------|------------------
    Db--2-2--------------5-5--3-3-3--3-3-5--|--5/--------------
    Ab--------------------------------------|------------------
    Db--------------------------------------|------------------
    
    Chorus
    eb---------------------------------------------------------
    Bb---------------------------------------------------------
    Gb---------------------------------------------------------
    Db--2-2---9-10-9--5-5--3-3-3-5-----------------------------
    Ab--2-2---9-10-9--5-5--3-3-3-5-----------------------------
    Db--2-2---9-10-9--5-5--3-3-3-5-----------------------------
    
    Verse…
  • Intro, Versus
    
    E|---------------------------|
    B|---12-12--10-8--7-(77)-8-7-|
    G|-9-------------------------|
    D|---------------------------|
    A|---------------------------|
    E|---------------------------|
    
    Chorus (Hard Distortion)
    
    E|----------------|
    B|----------------|
    G|--7--10-5-3~2~3-|
    D|--9--12-7-5~4~5-|
    A|--9--12-7-5~4~5-|
    E|----------------|
    
    It…
  • Gm
    In this farewell, 
                  B
    There’s no blood, 
               F    Cm
    There’s no alibi. 
    ‘Cause I’ve drawn regret, 
    From the truth
    Of a thousand lies. 
                  D#
    So let mercy come, 
              F
    And wash away……
  • Intro:
    e|----------------------|
    b|----------------------|
    G|----------------------|
    D|----------------------|
    A|----5--0--7-----------|
    E|-0---------8--7--0--3-|
    
     Then:
    
    e|-------------------|
    b|-------------------|
    G|--------9--------5-|
    D|--0-0-0-9--------5-|
    A|--0-0-0-7-8-7--0-3-|
    E|--0-0-0---8-7--0---|…
  • Tuning- Drop D and 1 half step down
    
    
    Intro - Palm Muted
    Eb-|----------------------------------------------------------------|
    Bb-|----------------------------------------------------------------|
    Gb-|----------------------------------------------------------------|
    Db-|----------------------------------------------------------------|
    Ab-|----------------------------------------------------------------|
    Db-|-7-0-0-0-1-0-0-0----0-1-0-1-0-0-0-------------------------------|…
  • Основной риф:
    E|-------------------------------------------|
    B|-------------------------------------------|
    G|--7--7----7-----8-8------7------5--------8-|
    D|--7--7----7-----8-8------7------5--------8-|
    A|--7--7----7-----8-8------7------5--------8-|
    E|--------0-----0-------0------0--------0----|
    
    (Перед…
  • Intro 1 (акустика)
    
    E|-12-10----0--15-14-12--------------------12--14-15-|
    B|-------12-------------12-10--15-12--8-10-----------|
    
    Intro 2
    
      Em Cm D Gm Am Bm
    E|-0--3-5-3--5--7-|
    B|-0--3-5-3--5--7-|
    G|-0--5-7-3--5--7-|
    D|-2--5-7-5--7--9-|
    A|-2--3-5-5--7--9-|
    E|-0--3-5-3--5--7-|
    
    Version…
  • |-----------------------------
    |-----------------------------
    |-----------------------------
    |---8-8-8-9-8-6---------------
    |-6-------------9-9-8-8-8-9-8-
    |-----------------------------
    
    repeat untill there is a big bass…
  • Tuning: Dropped D one half step down
    C# G# C# F# A# D#
    
    Intro x6
    x|--------------------------------------------------------------------------|x
    x|--------------------------------------------------------------------------|x
    x|--------------------------------------------------------------------------|x
    x|--3-3--6--5--4--3---------------------------------------------------------|x
    x|--------------------------------------------------------------------------|x
    x|--------------------------------------------------------------------------|x
    
    Verse…
  • Dropped D and tuned down 1/2 step
    
    Riff (palm muted)
    eb----------------------------------------------------------
    Bb----------------------------------------------------------
    Gb----------------------------------------------------------
    Db----------------------------------------------------------
    Ab------------8-8-------8-8-8-8--8--------------------------
    Db--7-7--7-7-------7-7--------------------------------------
    
    Verse
    eb--5-----5-----5-----5-----8-----8-----3-----3-------------
    Bb-----5-----5-----5-----5-----6-----6-----3-----3----------
    Gb----------------------------------------------------------
    Db----------------------------------------------------------
    Ab----------------------------------------------------------
    Db----------------------------------------------------------
    (Part…
  • Tuning: Dropped D one half step down
    C# G# C# F# A# D#
    
    Intro/Verse: x4
    x|--------------------------------------------------------------------------|x
    x|--------------------------------------------------------------------------|x
    x|--------------------------------------------------------------------------|x
    x|--------------------------------------------------------------------------|x
    x|---------------*7---------------*12---------------*7----------------------|x
    x|-00-0-088-8-88----00-0-088-8-88-----00-0-088-8-88----00-0-088-8-88--------|x
    
    Chorus
    x|--------------------------------------------------------------------------|x
    x|--------------------------------------------------------------------------|x
    x|----------------------10--10-10-1010--------------------------------------|x
    x|-0--0-00--0-0-008--8-810--10-10-1010--3--3-33--3-3-33--1--1-11--1-1-11--|x
    x|-0--0-00--0-0-008--8-88---8--8--8-8---3--3-33--3-3-33--1--1-11--1-1-11--|x
    x|-0--0-00--0-0-008--8-88---8--8--8-8---3--3-33--3-3-33--1--1-11--1-1-11--|x
    
    Bridge:
    x|--------------------------------------------------------------------------|x
    x|--------6---5-----------3---1---------------------------------------------|x
    x|-------------------------------------------0------------------0-----------|x
    x|-0----0---0---0---0---3---3---3---3-----3-----3---3-------2-----2---2-----|x
    x|-0--------------0---1-----------1-----3---3-----3-------3---3-----3-------|x
    x|-0--0-------------------------------3-----------------2-------------------|x…
  • Intro:
    E|-------------------|
    B|-5-7-8~-8-10-8-7~~-|  x4
    G|-------------------|
    D|-------------------|
    A|-------------------|
    E|-------------------|
    
    Intro,Chorus (Guitar with distortion)
    
       Em Cm Dm Hm
    E|-7--8--10-7-|
    B|-7--8--10-7-|
    G|-9--8--10-7-|
    D|-9--10-12-9-|
    A|-7--10-12-9-|
    E|-7--8--10-7-|
    
    вообще…
  • Am            G\H             F    G
    I close both locks below the window
    I close both blinds and turn away
    Sometimes solutions aren't so simple
    Sometimes goodbye's the only way
             C   Dm            Am F
    And the sun…
  • Tuning: Standard
    
    (Intro, First Verse and First Chorus)
    e|---------------------------------|
    B|---------------------------------|
    G|-7---7---7---7---7---7---7---7---| Play this riff 12 times
    D|---------------------------------|
    A|---5---5---5---5---5---5---5---5-|
    E|---------------------------------|
    
    
    (Second…
  • Вступление и припев (distortion):
    
       Dm Fm Bm Gm Am
    E|-5--8--6--10-12-|
    B|-5--8--6--10-12-|
    G|-7--10-6--12-14-|
    D|-7--10-8--12-14-|
    A|-5--8--8--10-12-|
    E|-5--8--6--10-12-|
    
    Куплет:
    
       Dm Cm Dm Gm Am
    E|-5--3--5--3--5-|
    B|-5--3--5--3--5-|
    G|-7--5--7--3--5-|
    D|-7--5--7--5--7-|
    A|-5--3--5--5--7-|
    E|-5--3--5--3--5-|
    
    Все…
  • Intro
    e----------------------------------  -----
    b----------------------------------  -----
    g--4--4-----5--5-----7-7-----4--4--  --4-4
    d--4--4-----6--6-----6-6-----0--0--  --2-0
    a----------------------------------  -----
    e----------------------------------…
  • IntroVerse:
    E|-----------------|
    B|-----------------|
    G|-----------------|
    D|-----------------|
    A|----0-4-0-1-11-0-|
    E|-----------------|
    
    Chorus:
    D|-0-888-7-0-6-0-3-33-0-|
    A|-0-888-7-0-6-0-3-33-0-|
    E|-0-666-5-0-4-0-1-11-0-|
    
    And…
  • Intro: (Dm F Am G)2x "Starts after techno"
    
               Dm    F
    The cycle repeated
         Am                     G
    as explosions broke in the sky
                Dm   F
    all that I needed
            Am                    G
    was…
  • INTRO/opening to chorus (* means a harmonic)
    D|---------------------------|
    A|---------------------------|
    F|---------------------------|
    C|---------------------------|
    G|---------------------------|
    C|-0-0--0-13/0--0-0-0-0-0-4*-|
    
    VERSE…
  • Tunning:Dropped D one half step down
    C# G# C# F# A# D#   
    
    Intro: (x2 times)
    x|--------------------------------------------------------------------|x
    x|--------------------------------------------------------------------|x
    x|--------------------------------------------------------------------|x
    x|-3--2--2--2--2--3--2--2----*5--3--2--2--2--2--3--2--2---------------|x
    x|-3--2--2--2--2--3--2--2--*5----3--2--2--2--2--3--2--2---------------|x
    x|-3--2--2--2--2--3--2--2--------3--2--2--2--2--3--2--2---------------|x…
  • Fm            Dь     
    Telling me to go
    Bm                     Fm\\C C  
    But hands beg me to stay
    Your lips say that you love
    Your eyes say that you hate
    
    There's truth in your lies
    Doubt in your faith
    What you build you…
  • Intro:
    E|--------------------|
    B|--------------------|
    G|--------------------|
    D|-------0------------|
    A|--2---------------0-|
    E|---------------3----|
    
    E|---------------------|
    B|---------------------|
    G|---4---7-------------|
    D|---4---7-----5----7--|
    A|---2---5-----5----7--|
    E|---------------3---5-|
    
    Можно…
  • Verse Version 1
    
    Db------------------------
    Ab------------------------
    E------------------------- x11
    B--0-0-0-7--3--5-5-5-8--7-
    Gb-0-0-0-7--3--5-5-5-8--7-
    B--0-0-0-7--3--5-5-5-8--7-
    
    Verse Version 2
    
    Db--------------------------
    Ab--------------------------
    E---------------------------…
  • Am                      D
    Water grey through the windows Up the stairs
    Chilling rain Like an ocean Everywhere
    
    Припев:
                   C
    Don't want to reach for me do you?
       F
    I mean nothing to you
         D
    The Little…
  • Tuning: L C#,G#,C#,F#,A#,D# H
    
    Riff A (arr. for gtr)
    
    harm.........................
    D#---------|---------|----12---|
    A#----7----|---------|---------|
    F#---------|----5----|---------|
    C#---------|---------|---------|
    G#---------|---------|---------|
    C#---------|---------|---------|
    
    These…
  • Am
    I dreamed I was missing 
    Am\C
    You were so scared
    Fmaj7 
    But no one would listen
    Dm 
    Cause no one else cared 
    
    Am
    After my dreaming 
    C
    I woke with this fear 
    F
    What am I leaving 
    D
    When I'm done here 
    
    F
    So if you're asking…
  • Intro:
    D-------------------------------------------------
    A-------------------------------------------------
    F-------------------------------------------------
    C-0-----------------------------------------------
    G-0-----------------------------------------------
    C-0-----------------------------------------------
    Strike…
  • Tuning: Dropped D one half step down
    C# G# C# F# A# D#
    
    Intro:(x2)
    x|--------------------------------------------------------------------------|x
    x|--------------------------------------------------------------------------|x
    x|-1--4--1--2---------------------------------------------------------------|x
    x|-------------3------------------------------------------------------------|x
    x|--------------------------------------------------------------------------|x
    x|--------------------------------------------------------------------------|x
    
    Verse:(x12)
    x|--------------------------------------------------------------------------|x
    x|--------------------------------------------------------------------------|x
    x|----5-4-------------------------------------------------------------------|x
    x|-2------3-2---------------------------------------------------------------|x
    x|--------------------------------------------------------------------------|x
    x|--------------------------------------------------------------------------|x
    
    Chorus:(x4)
    x|--------------------------------------------------------------------------|x
    x|--------------------------------------------------------------------------|x
    x|--------------------------------------------------------------------------|x
    x|-22-22---33-33------------------------------------------------------------|x
    x|-22-22---33-33------------------------------------------------------------|x
    x|-22-22---33-33------------------------------------------------------------|x
    
    Bridge(x4)
    x|--------------------------------------------------------------------------|x
    x|--------------------------------------------------------------------------|x
    x|-(1)----(4)----(1)----(2)-------------------------------------------------|x
    x|-22-22--22-22--22-22--22-22-(3)-------------------------------------------|x
    x|-22-22--22-22--22-22--22-22-----------------------------------------------|x
    x|-22-22--22-22--22-22--22-22-----------------------------------------------|x…
  • D#m
    Are you lost in your lies
    do you tell yourself i don't realize
    Your receives a disguise
    Replaced freedom with fear  you trade money for lives
    I’m aware of what you've done
    
    Припев:
    H B D#m
    No, no more sorrow
    I’ve…
  • Tuning:  Standard 5-String: B, E, A, D, G
    
    Intro: Riff 1 (1x) then Riff 2 (2x)
    Verse 1: Fill 1 (1x) Riff 2 (3x)
    Chorus: Riff 2 (2x)
    Verse 2: (Motion Man): Fill 1 (1x) Riff 2 (1x) 
              Fill 2 (1x) Riff 2 (1x) Fill 3…
  • Intro: F | F Eb Gb Eb
    
    F                              Eb  Gb Eb
      Caught up against the wall again
      Time to chill in the bar again 
      Never seize to amaze the night 
      So I just sleep, sleep, sleep, please, don't
    
    Bm…
  • Intro:  A  D    F#m   E
     
    Verse 1:
    D                                            F#m                 
     I'm stuck in this bed you made along with a sinking feeling 
    E                                                  A…
  • Dm                      F      
    My insides all turn to ash, so slow
    And the waves inside collide, so cold
    A black winter blew away, from sight
    And how the darkness over days, that night
                B7                C
    And…
  • Intro
    E|-------|-----------------------|   |------------------------|
    B|-------|-----------------------|   |------------------------|
    G|-------|-----------------------|3X |------------------------|
    D|-------|-----------------------|…
  • Tuning:  Standard 5-String: B, E, A, D, G
             Drop Tuned 4 String: D, A, D, G 
    
    Layout:
    Intro: (no Bass)
    Verse 1: 4x
    Break: (no Bass)
    Chorus (I guess): 4x
    Pause: (no Bass)
    Verse 2: 8x
    Break: (no Bass)
    Verse 3 (Chali):…
  • Intro
    e---------------------------------------------------------------------]
    B---------------------------------------------------------------------]
    G---------------------------------------------------------------------]
    D---------------------------------------------------------------------]
    A--4---4---6---4---4---6---4---4---6---4h5---4h5---4h5---4h5----------]
    E---------------------------------------------------------------------]X2
    
    e---------------------------------------------------------------------]
    B---------------------------------------------------------------------]
    G---------------------------------------------------------------------]
    D---x---6---2----x---6---2------x---6---2-----------------------------]
    A---4---4---2----4---4---2------4---4---2----4h5---4h5---4h5---4h5----]
    E---4-------0----4-------0------4-------0----4h5---4h5---4h5---4h5----]X2
    
    e---------------------------------------------------------------------]
    B---------------------------------------------------------------------]
    G---------------------------------------------------------------------]
    D---x---6----x---6-------x---6----------------------------------------]
    A---4---4----4---4-------4---4-----4h5---4h5---4h5---4h5--------------]
    E---4--------4-----------4---------4h5---4h5---4h5---4h5--------------]X2
    
    e---------------------------------------------------------------------]
    B---------------------------------------------------------------------]
    G---------------------------------------------------------------------]
    D---x---6---2----x---6---2----x---6---2-------------------------------]
    A---4---4---2----4---4---2----4---4---2---4h5---4h5---4h5---4h5-------]
    E---4-------0----4-------0----4-------0---4h5---4h5---4h5---4h5-------]X2
    
    e---------------------------------------------------------------------]
    B---------------------------------------------------------------------]
    G---------------------------------------------------------------------]
    D---x---x-------x---x-------x---x-------x-----------------------------]
    A---4---4---7---4---4---7---4---4---7---4-----------------------------]
    E---4---4---5---4---4---5---4---4---5---4-----------------------------]
    
    
    Chorus
    e----------------------------------------------------------------------]
    B----------------------------------------------------------------------]
    G----------------------------------------------------------------------]
    D---x-----7----x----2---4----6-----------------------------------------]
    A---4-----7----4----2---4----6-----------------------------------------]
    E---4-----x----4--------x----x-----------------------------------------]X3
    
    e----------------------------------------------------------------------]
    B----------------------------------------------------------------------]
    G----------------------------------------------------------------------]
    D------x---7---x---2---6---x-------------------------------------------]
    A------x---7---4---2---6---5-------------------------------------------]
    E------4---x---4---x-------5-------------------------------------------]X1
    
    As…
  • e|---------|----------|
    B|---------|----------|
    G|---------|----------|
    D|-33--3-3-|-55---5-5-|
    A|-33--3-3-|-55---5-5-|
    E|-33--3-3-|-55---5-5-|
    
    e|---------|--------|
    B|---------|--------|
    G|---------|--------|
    D|-33--3-3-|-00--11-|
    A|-33--3-3-|-00--11-|
    E|-33--3-3-|-00--11-|
    
    e|---------|---------|
    B|---------|---------|
    G|---------|---------|
    D|-33--3-3-|-22--2-2-|
    A|-33--3-3-|-22--2-2-|
    E|-33--3-3-|-22--2-2-|
    
    e|---------|--------|
    B|---------|--------|
    G|---------|--------|
    D|-33--3-3-|-00--11-|
    A|-33--3-3-|-00--11-|
    E|-33--3-3-|-00--11-|…
  • Intro: Fm F G G }x2
    
    Verse:
    Fm                                       F
     I use the dead would to make the fire rise
    G                                       G
     The blood of innocence burning in the skies
    Fm…
  • Intro: Am  Am  G  Dm }x3
           F  G  Am  
     
    Verse 1: 
     Am  
    Take me down to the river bend, 
     Am  
    Take me down to the fighting end, 
     G  
    Wash the poison from off my skin 
     Am  
    Show me how to be whole again…
  • Gm
    I remembered black skies
        C               C     G
    The lightning all around me
        Gm
    I remembered each flash
       C             C  G
    As time began to blur
           Gm
    Like a startling sign 
         C…
  • Intro Dm
    Вся песня: Dm F C G
    
    Nah, you don't know me
    Lightning above and a fire below me
    You cannot catch me, cannot hold me
    You cannot stop, much less control me
    When it rains, it pours, when the floodgates open…
  • Intro: F C Am G (D x4) }x4
    
    F C Am G (D x4) 
    You say you're not gonna fight 'cause no one will fight for you
    F C Am G (D x4) 
    And you think there's not enough love and no one to give it to
    F C Am G (D x4) 
    And you're…
Наверх