Аккорды «Liquido»

Liquido
Liquido - это альтернативная рок-группа из Германии, которая была создана в 1996 г. четырьмя друзьями: Вольфгангом Майером (барабаны), Вольфгангом Шрёдл (вокал, гитара, фортепиано), Штефаном Шульте-Холтхаусом (басс-гитара) и Тимом Айерманном (вокал, гитара). Их единственный примечательный для большинства слушателей музыки хит "Narcotic" впервые был выпущен на демо в 1996 г., при этом более чем 700 000 копий его было распродано, когда Virgin Records повторно выпустили его в 1998 г., благодаря… Читать полностью... Liquido - это альтернативная рок-группа из Германии, которая была создана в 1996 г. четырьмя друзьями: Вольфгангом Майером (барабаны), Вольфгангом Шрёдл (вокал, гитара, фортепиано), Штефаном Шульте-Холтхаусом (басс-гитара) и Тимом Айерманном (вокал, гитара). Их единственный примечательный для большинства слушателей музыки хит "Narcotic" впервые был выпущен на демо в 1996 г., при этом более чем 700 000 копий его было распродано, когда Virgin Records повторно выпустили его в 1998 г., благодаря чему его можно назвать международным. С тех пор Liquido не удалось повторить былой успех, что явилось причиной разрыва с Virgin Records после двух неудачных альбомов. Уже в то время, когда в 2003 г. Virgin расстались с немцами, те занялись своими соло-проектами. Волле - LSD Underground, а вместе с Тимом - My Early Mustang. Вольфганг - The Prophet's Project, а вместе со Штефаном - Cages. 2005 г. представил общественности альбом Float вышедший на лейбле Nuclear Blast, который по заверениям многих оказался таким же неудачным, как и прошлые два. Тем не менее, у себя на родине Liquido обрели нечто вроде культа: например, "Narcotic" был избран как "вторая лучшая песня всех времен" на местной радиостанции Германии. (первая - "Stairway to Heaven" от Led Zeppelin). Кстати, "Наркотик" был включен в саундтрек американского фильма 'Игби идёт ко дну'. 2008 г. - Liquido совершенствуются дальше. 14 песен "Zoomcraft" обещают быть ещё более мелодичными, творческими. Это новые рок-эксперименты начиненные стильной электроникой. Теперь им предстоит тур в поддержку альбома (26.02.2005 - 20.08.2005) вместе с группой Lunik. Несмотря на отзывы большей части общественности вам следует обратить пристальное внимание на этот коллектив, потому что их треки и вправду великолепны, только не каждый это понимает. Скрыть...
Популярные аккорды Liquido:
алфавиту | просмотрам | случайно
  • 1st verse:
    e: l-2-----2-----2-----2----l--2-----2-----2-----2----l--2-----2-----2-----2----l--2-----2-----2-----2-----|l
    h: l------------------------l-------------------------l-------------------------l--------------------------|l
    g:…
  • Tuning: 1/2 step down
    
    
    Intro:
    A  E  G  D   (2x)
    
    
    A     E       G             D
    I'll stay now, want you to save my pleasure,
    A          E    G          D
    Don't you know, love is a state of treasure
    A…
  • G---|------||---------------------------|--------------------------|
    D---|--4:--||*--------------------------|--------------------------|
    A---|--4:--||*--4--4--4--4--4--4--4--4--|--6--6--6--6--6--6--6--6--|
    E---|------||---------------------------|--------------------------|…
  • ________    ________
    Chorus                              1.          2.
    |-----------|-----------|----------|-----------|---------|
    |*----------|-----------|----------|-------22-*|------2--|
    |*----------|-111111111-|----------|-333555---*|-3335----|
    |--11111111-|-----------|-33333333-|-----------|---------|…
  • chord notation
    
       F  C  Bb
    e| x  x  x         
    B| x  x  x        
    G| x  x  x         
    D| 3  10 8         
    A| 3  10 8           
    E| 1  8  6
    
    
    the verses:
    
    this might not be totally correct, if not just pick…
  • Tunding: Standart (EADGBe)
    
    
    Intro:
    e|-------------------------------------------------------------------|
    B|-------------------------------------------------------------------|
    G|-3-3-3-------------7-5---------------------------------------------|
    D|-3-3-3-3-3-4-5-5-5-7-5---------------------------------------------|
    A|-1-1-1-3-3-4-5-5-5-5-3---------------------------------------------|
    E|-------1-1-2-3-3-3-------------------------------------------------|
    
    Vers:
    e|-------------------------------------------------------------------|
    B|-------------------------------------------------------------------|
    G|-3-3-3-------------7-5---------------------------------------------|
    D|-3-3-3-3-3-4-5-5-5-7-5---------------------------------------------|
    A|-1-1-1-3-3-4-5-5-5-5-3---------------------------------------------|
    E|-------1-1-2-3-3-3-------------------------------------------------|
    
    Refrain:
    e|-------------------------------------------------------------------|
    B|-------------------------------------------------------------------|
    G|-3-----------------------------------------------------------------|
    D|-3------7------5------3--------------------------------------------|
    A|-1------7------5------3--------------------------------------------|
    E|--------5------3------1--------------------------------------------|
    
    Solo:…
  • Intro: F G# Eb
    
    Verse: F F G# Bb F/C
    
    Chorus: F G# Eb'
            F G# Eb C
    
    Bridge: (repeat chorus)
    
    Outro: (repeat verse) 
    
    Lyrics:
    
    VERSE
    Who said
    It ain't tricky?
    How come
    Your so wicked?
    
    Needless
    Almost…
  • Intro/Verse (only Bass but you can play this):
    
    --------------------------------------------------|
    --------------------------------------------------|
    --------------------------------------------------|
    --------------------------------------------------|…
  • Dm
    Verse:             You held my spine
                       F
                       To see me rise
                       Am
                       Now taste the silence ...
    
    
    
    Chorus:           F  Am  Dm…
  • e ------------------------------------------------------------------------|
    B ------------------------------------------------------------------------|
    G - - - - 5 - 8-----------------------------------------------------------|
    D…
  • N.B : there is a distortion for bass-guitar in this song...
    
    Tuning:
    
    INTRO
    G|---------------------------------------------------------------------------|
    D|---------------------------------------------------------------------------|
    A|---------------------------------------------------------------------------|
    E|--6~…
  • [G]you [D]refrain
    to [Em]kill the beast in [C]chains
    is it [G]dead on [D]time
    or [Em]never been a[C]live
    is it [G]pokin' through your [D]eyes?
        
    And [G]what will [D]come
    when [Em]all the realms have [C]gone
    is…
Наверх