Аккорды Mad Season - Artificial Red

Добавлено: @vitos
Дата добавления: 20 Июня 2016г.
Рейтинг:
0.0
Просмотров: 31
Транспонировать - +
                replace this part with fill 1 once in a while
g--------------|-----------
d--------------|-----------
a--------------|-----------
e--0--0-0--0-0-|---0-5--3--


fill 1
g----------------
d----------5-----
a-------5--------
e--0/7---------0-
comments powered by Disqus
Наверх