Аккорды Mad Season - I Don't Know Anything

Добавлено: @vitos
Дата добавления: 20 Июня 2016г.
Рейтинг:
0.0
Просмотров: 30
Транспонировать - +
Riff 1
repet x3 times then do:------>       
E----------------------------- ----------------------------------
B----------------------------- ----------------------------------
G----------------------------- -------------------*7------*7-----
D----------------------------- -----------------------*7---------
A----------------------------- ----------------------------------
E--0--0--*9--0--*9--0--2b----- --0--0--*9--0--*9-----------------


Riff 2
E----------------------------------------------------------------
B----------------------------------------------------------------
G----------------------------------------------------------------
D----------------------------------------------------------------
A--2--2--2--2--2--2--4/5--2--2--2--8--8--8--8--7--7--7--7--------
E--0--0--0--0--0--0--2/3--0--0--0--6--6--6--6--5--5--5--5--0--2b-


Solo
E----------------------------------------------------------------
B-------------------------------------------8--8-----------------
G-------------------------------7-----7--9--------9--9----7-----7
D--8b----8--9--7-------------9-----9-------------------------9---
A-----------------7--7--7----------------------------------------
E----------------------------------------------------------------

play this part of the solo faster
E--------------------------7-------------------------------------
B--10--8-----------8----------10--8-----8--10--8-----------------
G---------9--7--9-----9--------------9---------------------------
D----------------------------------------------------------------
A----------------------------------------------------------------
E----------------------------------------------------------------


E----------------------------------------------------------------
B------------------------------------10h--(12)-------------------
G---------------------------------7------------------------------
D--8--8--8--8--8--8--8--9/--8--9---------------------------------
A----------------------------------------------------------------
E----------------------------------------------------------------
comments powered by Disqus
Наверх