Аккорды Mad Season - Lifeless Dead

Добавлено: @vitos
Дата добавления: 20 Июня 2016г.
Рейтинг:
0.0
Просмотров: 31
Транспонировать - +
Intro riff
G-----------------------------------------------------------I
D----5/7--7--5-------------------------------------------I
A-------------------6---0-3---3-5---5-0----------------I
E------------------------------------------------------------I


Verse
Lifeless                          dead
G----------------------------------------------------
D----------------------------------------------------
A------------------------------------------------------
E--3-5---3-5---------3-5--3-5---X-X-X-X-----
That        unclean       bed...       
---------------------------------------------------------I
---------------------------------------------------------I
------------------------------------------------8---7-I
--3-5----3-5----------3-5----3-5-------------------I


Bridge
        He                Said             She              said
G---------------------------------------------------------------------
---I
D----5----5------------4-------4--------------------------------------
-I
A--------------------------------------------5--------5-------4------
4--I
E---------------------------------------------------------------------
----I


Outro verse and chorus
It sounds higher so play the fifth of each note
comments powered by Disqus
Наверх