Аккорды «Man or Astro-man?»

Man or Astro-man?
Man or Astro-man? - сёрфовый коллектив из города Auburn, штата Алабама, образовавшийся в конце восьмидесятых и добившийся успеха в девяностые. Исполняя в основном инструментальные композиции, Man or Astro-Man? смешали сёрф-рок шестидесятых с панк и нью-вейв образцами семидесятых и восьмидесятых. Man or Astro-Man? известны горячей приверженностью темам научной фантастики, использованию малоизвестных музыкальных инструментов (вроде терменвокса и катушки Тесла) и сэмплов из аутентичных фильмов,… Читать полностью... Man or Astro-man? - сёрфовый коллектив из города Auburn, штата Алабама, образовавшийся в конце восьмидесятых и добившийся успеха в девяностые. Исполняя в основном инструментальные композиции, Man or Astro-Man? смешали сёрф-рок шестидесятых с панк и нью-вейв образцами семидесятых и восьмидесятых. Man or Astro-Man? известны горячей приверженностью темам научной фантастики, использованию малоизвестных музыкальных инструментов (вроде терменвокса и катушки Тесла) и сэмплов из аутентичных фильмов, а также более чем впечатляющими живыми выступлениями. На ранних альбомах, таких как Is It...Man Or Astroman? или Destroy All Astromen!, звучит в основном традиционный серф в обрамлении заставок из дешевых научно-фантастических фильмов, в то время как на более поздних, к примеру EEVIAC... (1999), в качестве инструментов уже используется множество синтезаторов, принтеров (Apple ImageWriter II, например) и прочих чудес науки и техники, что позволило добиться совершенно невероятного абстрактного эспериментального звука - по прежнему намешанного с нарезкой из малоизвестных фильмов и телепередач. Музыканты уже давно существуют в каком–то странном, перевернутом параллельном мире, похожем на комиксы. А может, они свалились с Луны? Вот что они пишут о себе: "MAN OR ASTRO–MAN? используют самые передовые саунд и инструменты, которые человечество, может быть, так никогда полностью и не поймет. Состав музыкантов: Birdstuff (Brian Teasley) - барабаны Coco the Electronic Monkey Wizard (Robert DelBueno) - бас, электроника Star Crunch (Brian Causey) - гитара, вокал Скрыть...
Популярные аккорды Man or Astro-man?:
алфавиту | просмотрам | случайно
  • *1
    
    [pick slide]
    
    |-------------------------------------------------------------------|
    |-------------------------------------------------------------------|
    |-------------------------------------------------------------------|
    |-------------------------------------------------------------------|
    |-------------------------------------------------------------------|
    |-0-3-0-6--6-6-6-6-6-5-3-0-3--5---0-3-0-6--6-6-6-6-6-5-3-0-3--12-|…
  • *1
    
    Palm muting throughout
    
    |--------------------------------------------------------------------|
    |--------------------------------------------------------------------|
    |--------------------------------------------------------------------|
    |--------------------------------------------------------------------|
    |-----1-2-1------------3-2------1-2-1--------------------------------|
    |-0-0-------2--3-2-3-2------0-0-------2--3-2-3-2-3-2-----------------|
    
    
    *2
    
    |--------------------------------------------------------------------|
    |--------------------------------------------------------------------|
    |-2--2-2----5--5-5-4-2--4----4--4--4--2--2-2----5--5-5-4-2--4--------|
    |--------2--------------4----4--4--4---------2--------------4----2-1-|
    |-----------------------2----2--2--2------------------------2--------|
    |--------------------------------------------------------------------|
    
    |--------------------------------------------------------------------|
    |--------------------------------------------------------------------|
    |--------------------------------------------------------------------|
    |-2-1-2-1-2-1-2-1-2--------------------------------------------------|
    |--------------------------------------------------------------------|
    |-------------------0------------------------------------------------|
    
    *3
    
    |-0--------5--------7---------8-----7------8-----7-------0----------5-|
    |-0--------5--------7---------8-----7------8-----7-------0----------5-|
    |-1--------6--------8---------9-----8------9-----8-------1----------6-|
    |-2----X-X-7----X-X-9----X-X-10-X-X-9-X-X-10-X-X-9-------2----------7-|
    |-2----X-X-7----X-X-9----X-X-10-X-X-9-X-X-10-X-X-9-------2----------7-|
    |-0----X-X-5----X-X-7----X-X--8-X-X-7-X-X--8-X-X-7-0-0-0-0----5-5-5-5-|
    
    |-------7---------8-----7------8-----7-------------------------------|
    |-------7---------8-----7------8-----7-------------------------------|
    |-------8---------9-----8------9-----8-------------------------------|
    |-------9----X-X-10-X-X-9-X-X-10-X-X-9-------------------------------|
    |-------9----X-X-10-X-X-9-X-X-10-X-X-9-------------------------------|
    |-7-7-7-7----X-X--8-X-X-7-X-X--8-X-X-7-------------------------------|
    
    *4
    
    |--------------------------------------------------------------------|
    |--------------------------------------------------------------------|
    |--------------------------------------------------------------------|
    |-2--2-2----------5--5-5-4-2-----------------------------------------|
    |--------0--0-0-0-------------0-1h2-2-1h2-2-1h2-1h2-2-1h2-2-1h2------|
    |--------------------------------------------------------------------|
    
    |---------------------------------------------------------------------|
    |---------------------------------------------------------------------|
    |---------------------------------------------------------------------|
    |-2--2-2----------5--5-5-4-2------------------------------------------|
    |--------0--0-0-0-------------3-3-3-3-3-3-3-3-3-3-3-3-2-1-0-----------|
    |-----------------------------------------------------------3-2-1-0-0-|
    
    -first…
  • *1
    
    |-------------------------------------------------------------------|
    |-------------------------------------------------------------------|
    |-8-------8XX2--------/8--------2-----------------------------------|
    |-8-------8XX2--------/8--------2-----------------------------------|
    |-6-------6XX0--------/6--------0-----------------------------------|
    |-------------------------------------------------------------------|
    
    *2
    
    |-------------------------------------------------------------------|
    |-------------------------------------------------------------------|
    |-------------------------------------------------------------------|
    |-------------------------------------------------------------------|
    |-----------------------3-3-0--------------------------3-3-0--------|
    |-0-3-0-5--0-3-5--0-3-5-------3-5--0-3-5--0-3-5--0-3-5-------3-5----|
    
    |-------------------------------------------------------------------|
    |-------------------------------------------------------------------|
    |-------------------------------------------------------------------|
    |------------------------------------2--------------------------3-3-|
    |---------------------3-3-0------0-3------------5--0-3-5--0-3-5-----|
    |-0-3-5--0-3-5--0-3-5-------3-5--------0--0-------------------------|…
  • *1
    
    G1 reverb, distortion
    
    |-0-0-------------------------1-1-----1-1---0--0-0-------------|
    |-1-1-------------------------1-1-X-X-1-1---0--0-0-------------|
    |-2-2-------------------------2-2-X-X-2-2---1--1-1-------------|
    |-2-2-------3--2--2-0h2p0-----3-3-X-X-3-3-X-2--2-2-------------|
    |-0-0-0-2-3---------------3-0-3-3-X-X-3-3-X-2--2-2-------------|
    |--------------------------------------------------0-0-2-0-3-0-|
    
    Repeat…
  • Intro (palm muting throughout)
    
    |-------------------------------------------------------------------|
    |-------------------------------------------------------------------|
    |-------------------------------------------------------------------|
    |-------------------------------------------------------------------|
    |-------------------------------------------------------------------|
    |-6-6-5-5-4-4-3-3-6-6-5-5-4-4-3-3-6-6-5-5-4-4-3-3-6-6-5-5-4-4-3-3---|
    
    *1…
  • D-tuning
    
    
    *1 (palm muting throughout)
    
    |----------------------------------------------------------------|
    |----------------------------------------------------------------|
    |-----6-6-----6-6-----9-9-----9-9--------------------------------|
    |-----6-6-----6-6-----9-9-----9-9-----7-----6-----5-----6-----7--|
    |-8-8-----8-8-----7-7-----7-7-----5-5---5-5---5-5---5-5---5-5----|
    |----------------------------------------------------------------|…
  • *1
    
    G1
    
    |---------------------------------------------------------------------|
    |---------------------------------------------------------------------|
    |---------------------------------------------------------------------|
    |---------------------------------------------------------------------|
    |---------7-7-6-6-----5-5-4-4-------------7-7-6-6-----5-5-4-4---------|
    |-0-0-0-0---------7-7---------5-5-4-4-0-0---------7-7---------5-5-4-4-|
    
    |---------------------------------------------------------------------|
    |---------------------------------------------------------------------|
    |---------------------------------------------------------------------|
    |---------------------------------------------------------------------|
    |-----------------------------------------7-7-6-6-----5-5-4-4---------|
    |-5-5-7-8-5-5-7-8-5-5-7-8-5-5-7-8-0-0-0-0---------7-7---------5-5-4-4-|
    
    Transition
    
    |-77-7-7-7-7-7-7-7-7-8-8-8-8-8-8-8-8----------------------------------|
    |-77-7-7-7-7-7-7-7-7-8-8-8-8-8-8-8-8----------------------------------|
    |-88-8-8-8-8-8-8-8-8-9-9-9-9-9-9-9-9----------------------------------|
    |-99-9-9-9-9-9-9-9-9-1010101010101010---------------------------------|
    |-99-9-9-9-9-9-9-9-9-1010101010101010---------------------------------|
    |-77-7-7-7-7-7-7-7-7-8-8-8-8-8-8-8-8----------------------------------|
    
    *2
    
    |---------------------------------------------------------------------|
    |-------8------------10-----------------8--------------8--------------|
    |----9----9-------9------9-----------9----9---/9--9--9---9------------|
    |-9---------9-10-----------10--99-9---------9-/10-10-10----10-...-----|
    |---------------------------------------------------------------------|
    |---------------------------------------------------------------------|
    
    I…
  • Drop-D Tuning
    
    
    *1
    
    |--------------------------------------------------------------------|
    |--------------------------------------------------------------------|
    |-6/7-7/8-87-76-6/7-7/8-87-76------------------------------------|
    |-6/7-7/8-87-76-6/7-7/8-87-76------------------------------------|
    |-4/5-5/6-65-54-4/5-5/6-65-54------------------------------------|
    |--------------------------------------------------------------------|…
  • *1
    
    |---------------------------------------------------------------------|
    |---------------------------------------------------------------------|
    |---------------------------------------------------------------------|
    |---------------------------------------------------------------------|
    |-----2---3-3-3-2-----2---3-3-3-2-----2---3-3-3-2-----2---3-3-3-2-----|
    |-0-0---0---------0-0---0---------0-0---0---------0-0---0-------------|
    
    |---------------------------------------------------------------------|
    |---------------------------------------------------------------------|
    |---------------------------------------------------------------------|
    |-----2---3-3-3-2-----2---3-3-3-2-------------------------------------|
    |-0-0---0---------0-0---0-------------2---3-3-3-2-----2---3-3-3-2-----|
    |---------------------------------0-0---0---------0-0---0-------------|
    
    *2
    
    |---------------------------------------------------------------------|
    |---------------------------------------------------------------------|
    |-5-5-5--5--7-7-7--7-----------5-5-5--5--7-7-7--7---------------------|
    |-5-5-5--5--7-7-7--7-----------5-5-5--5--7-7-7--7---------------------|
    |-3-3-3--3--5-5-5--5-----------3-3-3--3--5-5-5--5---------------------|
    |--------------------0-0-3-5-----------------------0-0-3-0------------|
    
    |--------------------------------------------------121212121212------|
    |--------------------------------------------------121212121212------|
    |-5-5-5--5--7-7-7--7-----------5-5-5--5--7-7-7--7--121212121212------|
    |-5-5-5--5--7-7-7--7-----------5-5-5--5--7-7-7--7---------------------|
    |-3-3-3--3--5-5-5--5-----------3-3-3--3--5-5-5--5---------------------|
    |--------------------0-0-3-5------------------------------------------|
    
    repeat…
  • *1
    
    Main riff is E |022100|, D |X0023X|, A |X0222X|, and back to E.
    
    *2
    
    |---------------------------0---------------------------------------|
    |---------------------------0---------------------------------------|
    |-3---3-XX5-XX3-XX2---2---2-1---------------------------------------|
    |-3---3-XX5-XX3-XX2---2---2-2---------------------------------------|
    |-1---1-XX3-XX1-XX0---0---0-2---------------------------------------|
    |-----------------------3---0---------------------------------------|
    
    *3
    
    |--------------------------------------------------------------------|
    |--------------------------------------------------------------------|
    |-X-4--4-4-4--4-4-4-4--------------------4--4-4-4--4-4-4-4-----------|
    |-X-4--4-4-4--4-4-4-4-5-5-5-5-4-4-4-4-2--4--4-4-4--4-4-4-4-----------|
    |-X-2--2-2-2--2-2-2-2--------------------2--2-2-2--2-2-2-2-3-3-3-2-2-|
    |--------------------------------------------------------------------|
    
    |-------------------------------------------------------------------|
    |-------------------------------------------------------------------|
    |--------4--4-4-4--4-4-4-4--------------------4--4-4-4--4-4-4-4-----|
    |--------4--4-4-4--4-4-4-4-5-5-5-5-4-4-4-4-2--4--4-4-4--4-4-4-4-----|
    |-2-2-0--2--2-2-2--2-2-2-2--------------------2--2-2-2--2-2-2-2-----|
    |-------------------------------------------------------------------|
    
    |-------------0-----------------------------------------------------|
    |-------------0-----------------------------------------------------|
    |-------------1-----------------------------------------------------|
    |-------------2-----------------------------------------------------|
    |-------------2-----------------------------------------------------|
    |-3-3-3-2--2--0-----------------------------------------------------|
    
    *4
    
    |-------------------------------------------------------------------|
    |-------------------------------------------------------------------|
    |-------------------------------------------------------------------|
    |-------------------------------------------------------------------|
    |-------------------------------------------------------------------|
    |-------------------------------------------------------------------|…
  • Intro
                    ,             ,             ,
    |-----------------------------------------------------------------|
    |-----------------------------------------------------------------|
    |-----------------------------------------------------------------|
    |--4--4-4--4-4-4-4--4-4--4-4-4-4--4-4--4-4-4-4--4-4--4-4-4--------|
    |-----------------------------------------------------------------|
    |-----------------------------------------------------------------|…
  • *1
    
    G1                                       ~~~~
    |-------------------------------------|------------------------------|
    |-------------------------------------|------------------------------|
    |-------------------------------------|-2----------------------------|
    |-------------------------------------|-2----------------------------|
    |-------------------------------------|-0----------------------------|
    |-5--5-5-4--4-4-3--/12--1-2-3-4--3-2-|------------------------------|
    
    G2…
  • *1
                                     pm-----------------------------------|
    |---------------------------------------------------------------------|
    |---------------------------------------------------------------------|
    |---------------------------------------------------------------------|
    |-14-14-14-14-14-14-14-14-14---------------------------------------|
    |------------------------------------7-------7-------7-------7--------|
    |--------------------------------6-6---6-7-7---7-8-8---8-7-7---7-6-6--|…
  • Drop-D tuning
    
    
    *1
    
    G1
    
    |---------------------------------------------------------------------|
    |---------------------------------------------------------------------|
    |---------------------------------------------------------------------|
    |------------9-9-8-8-------------------------------------------------|
    |-9-9-8-8--------------9-9-8-8/---3-3-3-5---------------------------|
    |---------------------------------------------------------------------|
    
    G2
    
    Starts…
  • Intro (played twice)
    
    |-------------------------------------------------------------------|
    |-------------------------------------------------------------------|
    |-2------------------------------2----------------------------------|
    |-2--2-2-1-1-0-0-------------3-3-2--2-2-1-1-0-0-------------3-3-----|
    |----------------3-3-2-2-3-3--------------------3-3-2-2-3-3---------|
    |-------------------------------------------------------------------|
    
    |-------------------------------------------------------------------|
    |-------------------------------------------------------------------|
    |-2--------------------------0-0-2--------------2h3-3-3-2h3-3-3-----|
    |-2--2-2-1-1-0-0---------3-3-----2--2-2-1-1-2-2---------------------|
    |----------------3-3-2-2--------------------------------------------|
    |-------------------------------------------------------------------|
    
    *1
    
    |-------------------------------------------------------------|
    |-------------------------------------------------------------|
    |-2--2-2-2-2-2-2-2--2-2-2-2-2-2-2--2-2-2-2-2-2-2--2-2-2-2-2-2-|
    |-2--2-2-2-2-2-2-1--1-1-1-1-1-1-0--0-0-0-0-0-0-1--1-1-1-1-1-1-|
    |-------------------------------------------------------------|
    |-------------------------------------------------------------|
    
    |-------------------------------------------------------------|
    |-------------------------------------------------------------|
    |-2--2-2-2-2-2-2-2--2-2-2-2-2-2-2--2-2-2-2-2-2-2--2-2-2-2-2-2-|
    |-2--2-2-2-2-2-2-1--1-1-1-1-1-1-0--0-0-0-0-0-0-1--1-1-1-1-1-1-|
    |-------------------------------------------------------------|
    |-------------------------------------------------------------|
    
    |-------------------------------------------------------------------|
    |-------------------------------------------------------------------|
    |-2-2-2-2-2-2-2-2-2-2-2-2-2-2-2-2-5-5-5-5-5-5-5-5-5-5-5-5-5-5-5-5---|
    |-2-2-2-2-2-2-2-2-1-1-1-1-1-1-1-1-5-5-5-5-5-5-5-5-5-5-5-5-5-5-5-5---|
    |---------------------------------3-3-3-3-3-3-3-3-3-3-3-3-3-3-3-3---|
    |-------------------------------------------------------------------|
    
    |-------------------------------------------------------------------|
    |-------------------------------------------------------------------|
    |-2-2-2-2-2-2-2-2-2-2-2-2-2-2-2-2-5-5-5-5-5-5-5-5-5-5-5-5-5-5-5-5---|
    |-2-2-2-2-2-2-2-2-1-1-1-1-1-1-1-1-5-5-5-5-5-5-5-5-5-5-5-5-5-5-5-5---|
    |---------------------------------3-3-3-3-3-3-3-3-3-3-3-3-3-3-3-3---|
    |-------------------------------------------------------------------|
    
    *2
    
    |----------------------------------------------------------------------|
    |----------------------------------------------------------------------|
    |-2--2---7--7-5-7-X-10-10--9--9-7-9--2--2---7--7-5-7-X-8--8---7--7-5-7-|
    |-2--2---7--7-5-7-X-10-10--9--9-7-9--2--2---7--7-5-7-X-8--8---7--7-5-7-|
    |-0--0---5--5-3-5-X-8--8---7--7-5-7--0--0---5--5-3-5-X-6--6---5--5-3-5-|
    |-----------------X----------------------------------X-----------------|
    
    |----------------------------------------------------------------------|
    |----------------------------------------------------------------------|
    |-2--2---7--7-5-7-X-10-10--9--9-7-9--2--2---7--7-5-7-X-8--8---7--7-5-7-|
    |-2--2---7--7-5-7-X-10-10--9--9-7-9--2--2---7--7-5-7-X-8--8---7--7-5-7-|
    |-0--0---5--5-3-5-X-8--8---7--7-5-7--0--0---5--5-3-5-X-6--6---5--5-3-5-|
    |-----------------X----------------------------------X-----------------|
    
    repeat…
  • *1
    
    A# C# Eb
    A# C# Eb
    
    
    *2
    
    |-------------------------------------------------------------------|
    |-------------------------------------------------------------------|
    |-------------------------------------------------------------------|
    |-------------------------------------------------------------------|
    |-------------------------13-13-13-12-12-12-11-11---------8-8-------|
    |-11-11-11-11-14-11-11-11-------------------------9-9-9-9-----9-9---|
    
    |--------------------------------------------------------------------|
    |--------------------------------------------------------------------|
    |--------------------------------------------------------------------|
    |--------------------------------------------------------------------|
    |-/11-11-11-11-9-9-11-9-------------------------13-13-13-12-12-12-11-|
    |-----------------------11-11-11-11-14-11-11-11----------------------|
    
    |-------------------------------------------------------------------|
    |-------------------------------------------------------------------|
    |-------------------------------------------------------------------|
    |-------------------------------------------------------------------|
    |-11---------8-8----------------------------------------------------|
    |----9-9-9-9-----9-9-11hb(11-11-11-11-11)r--------------------------|
    
    
    *3
    
    Eb
    
    Eb…
Наверх