Аккорды «Mandy Moore»

Mandy Moore
Аманда Ли (Мэнди Мур) родилась 10 апреля 1984 в Нашуа, Нью-Хэмпшире, третий ребёнок в семье и первая дочка Дона и Стэйсей Мур. (У неё есть 2 брата - Скотт и Кайл). Когда Мэнди было 2 месяца, её семья переехала в Орландо (штат Флорида), где они и живут до сих пор. Мэнди уже в шесть лет знала, что она предназначена для сцены. Её способности и талант проявились тогда, когда она пошла в летний музыкальный театральный лагерь, ей тогда исполнилось девять лет. Мэнди Мур приобрела известность в местном… Читать полностью... Аманда Ли (Мэнди Мур) родилась 10 апреля 1984 в Нашуа, Нью-Хэмпшире, третий ребёнок в семье и первая дочка Дона и Стэйсей Мур. (У неё есть 2 брата - Скотт и Кайл). Когда Мэнди было 2 месяца, её семья переехала в Орландо (штат Флорида), где они и живут до сих пор. Мэнди уже в шесть лет знала, что она предназначена для сцены. Её способности и талант проявились тогда, когда она пошла в летний музыкальный театральный лагерь, ей тогда исполнилось девять лет. Мэнди Мур приобрела известность в местном музыкальном театре и в возрасте 15 лет записала свой дебютный платиновый альбом. Во время поездок на гастроли с группами «Backstreet Boys» и «NSYNC» в 1999 году молодая исполнительница была представлена широкой публике, а спрос на ее дебютный сингл «Candy» был настолько велик, что дата выхода альбома была передвинута. С видеоклипа «Candy началась ее карьера на MTV. Мэнди закрепилась на MTV, появившись в популярном дневном сериале «ТиЭрЛи» и участвуя в специальных программах. Заметив ее обаяние, харизматичность и великолепное умение держаться перед камерой, телесеть предложила Мур выпускать ее собственные передачи, первой из которых стала программа в разговорном жанре «Шоу Мэнди Мур». В 2001 актриса дебютировала на большом экране, сначала с небольшой ролью в фильме «Доктор Дулиттл 2», где она озвучила одного из персонажей, затем в роли второго плана в комедии Гэрри Маршалла «Дневники принцессы». Мэнди с удовольствием сыграла в фильме легендарного режиссера и заслужила одобрение критиков. В 2002 году вышел фильм «Спеши Любить» с Мэнди Мур и Шейном Уэстом в главных ролях. Мэнди играет роль тихой отличницы, в то время как персонаж Шейна напротив - популярный в школе парень. Это несколько сладкая, но красивая любовная история. Одновременно с выходом этой картины выходят одноименный успешный саундтрэк, где Мэнди исполняет несколько песен, и хитовый сингл «In My Pocket». После того как ее дебютная роль принесла внушительные сборы, Мур в 2003 году пригласили на главную роль в фильм «Как быть», где актриса играет девушку-подростка, чьи циничные взгляды на романтические отношения кардинально меняются, когда она впервые влюбляется. В том же году вышел музыкальный диск «Coverage», в котором Мур перепевает песни Элтона Джона, Тода Рандгрена, Кэт Стивенса и других классических рок и поп певцов на новый лад для своего поколения поклонников. Затем она сыграла непокорную дочь первого президента США в фильме «Погоня за свободой» (2004)., находящуюся под постоянным присмотром агентов спецслужб. Бунтарка сбегает из-под постоянного надзора и влюбляется, как потом оказалось, в агента секретной службы, направленного для ее защиты. После этой, условно говоря, спокойной массовой киноленты, Мур играет в озорной независимой комедии «Saved!».Глубокий драматизм актрисы и возможности импровизации добавляют сложные черты ее персонажам, которые были бы совершенно неприятны, если бы исполнялись кем-то другим. В фильме «Бешеные скачки» (2005), доброй семейной комедии, Мур озвучивает Сэнди, молодую лошадь, помогающую зебре Страйпс выступить в первом заезде. Мур также снималась в успешном комедийном сериале Джеймса Кэмерона «Окружение»( Entourage от HBO) в 2005 году, играя саму себя, у которой во время съемок фильма про супергероя случается запутанный роман с Винсентом Чейзом (Эдриэн Греньер). Затем она подписала контракт на съемки в роли дочери Дайэн Китон в фильме «Потому что я так хочу». Скрыть...
Популярные аккорды Mandy Moore:
алфавиту | просмотрам | случайно
  • INTRO/VERSE
    -----------
     
    (Arpeggiated chords)
     
      C major      G major 6th  D minor 7th
    1|--------8-----------7-----------5----------5---
    2|------8-----------8-----------6----------6-----
    3|----9-----------9-----------5----------5-------
    4|-10----------10-----------7----------7---------
    5|-----------------------------------------------
    6|-----------------------------------------------…
  • Chords used-
       C#m G#m  A   E C#sus2 G#  F#  Bb  B  Eb
    e|--4---4---0---0---4----4---2---1---2---x------------------|
    B|--5---4---2---0---6----4---2---3---4---8------------------|
    G|--6---6---2---1---6----5---3---3---4---8------------------|
    D|--6---6---2---2---6----6---4---3---4---8------------------|
    A|--4---6---0---2---4----6---4---1---2---6------------------|
    E|--x---4---x---0---x----4---2---x---x---x------------------|
    
    Verse-
    C#m…
  • INTRO
    -----
     
       G  C
     
    1|--------------10-------
    2|-------------------8---
    3|-----------------9-----
    4|-----------------------
    5|-----------------------
    6|-----------------------
     
    Overdub this on all the verse
     
    1|----------------------------------
    2|-8--8--8--8-8-8-8--8--8--8-8-7/8--
    3|----------------------------------
    4|-5--5--5--5-5-5-5--5--5--5-5-5----
    5|----------------------------------
    6|----------------------------------…
  • Tune guitar down 1/2 step (Eb tuning)
     
    
    INTRO
    -----
    
      Eb          Ab
     
    1|-----7------------7--------------7--------------7----------
    2|-----7------------7--------------7--------------7----------
    3|---------8------------8----9---9-----8----9---9-----8----9-
    4|---9---9--------9---9--------7-----7--------7-----7--------
    5|-7------------7--------------0--------------0--------------
    6|-0------------0--------------------------------------------…
  • NOTE:
    
    The guitar tune was based like the on the song so this 
    should be accurate.Suggestions for improvements are welcomed.
    
    INTRO:
    
           A            E            D            A
    
    |------0----0-------0----0-------0----0-------0----0-0-
    |------2------------0---------3--3------------2----2---
    |---2--2------------1---------2--2---------2--2--2-2---
    |---2--2--2------2--2--2------0--0--0------2--2--2-2---
    |----------------2-------------------------------------
    |------------------------------------------------------
    
    VERSE:…
  • Standard Tuning
    
    Intro :
    
    High E-------------
    -------------------
    1-------1----------
    2-------2----------
    2-------2----------
    0-0-0-0-0-0-0-0-0--
    
    Do this very fast paced, repeat then : 
    
    Verse 1 :
    
    A          E…
  • Intro: Gmaj7    F#7    A    E/G#    Gmaj7    F#7    B
    
    Gmaj7   F#7
    Walk me home
    A			E/G#
    I don't wanna go all the way alone
    Gmaj7          F#7          B
    Baby would you walk with me home
                   Gmaj7   F#7
    Baby would…
  • INTRO
    -----
     
    1|----------------------------------------------
    2|----------------------1-----------------------
    3|-3-1p0-1-----0----1h3---3p1-3-0---0-----0---1-
    4|-----------3---1----------------3---1-3---3---
    5|----------------------------------------------
    6|----------------------------------------------…
  • This is a three chord song, and those chords are:
     
    D Bb and C
     
    Very boring, but thats how it is. Funny how the most simple and basic 
    songs are the most popular.
     
    Intro Melody
    ------------
     
    1|-2-----0-2-----0-1-----1---5-3-2-
    2|-----3-------3-------3---5-------
    3|---2-------2-------3-------------
    4|---------------------------------
    5|---------------------------------
    6|---------------------------------…
  • intro:
        G-C
    
        G                  C
    Ninety miles outside Chicago
        G
    Can't stop driving
       C
    I don't now why
      G
    So many questions
                          C
    I need an answer
        G
    Two years and later
              C…
  • intro:			head:  in the key of C
    e|----1------1----------------------------------------------|
    B|----1------1----------------------------------------------|
    G|----0------0--------------4--4-5----------4--4-5----------|
    D|----1------3---------------------5---------------5--------|
    A|----x------x--------------------------3-------------------|
    E|----x------x----------------------------------------------|
    
    
    verse:…
  • Intro: A    G    A   G (they are spread apart) X 2
    
    First Verse:
    
    VERSE 1
    (strum once)
    Am           A
    We were....
    
    G           Gsus
    You put....
    
    (strum constantly till next chord)
    
    Am             A
    I tried.....
    
    G…
Наверх