Аккорды «Marilyn Manson»

Marilyn Manson
Мэрилин Мэнсон (англ. Marilyn Manson) — американский музыкант, основатель и бессменный лидер рок-группы Marilyn Manson. Группа была образована в 1989 году в Форт-Лодердейл, штат Флорида, Мэ́рилином Мэ́нсоном (англ. Marilyn Manson, настоящее имя — Бра́йан Хью Уо́рнер, Brian Hugh Warner) и The Spooky Kids. С тех пор состав коллектива неоднократно менялся. Участники, внесшие наиболее значительный вклад в творчество группы и/или пребывавшие в ней длительное время: Дэйзи Берковитц (Скотт Путески),… Читать полностью... Мэрилин Мэнсон (англ. Marilyn Manson) — американский музыкант, основатель и бессменный лидер рок-группы Marilyn Manson. Группа была образована в 1989 году в Форт-Лодердейл, штат Флорида, Мэ́рилином Мэ́нсоном (англ. Marilyn Manson, настоящее имя — Бра́йан Хью Уо́рнер, Brian Hugh Warner) и The Spooky Kids. С тех пор состав коллектива неоднократно менялся. Участники, внесшие наиболее значительный вклад в творчество группы и/или пребывавшие в ней длительное время: Дэйзи Берковитц (Скотт Путески), Твигги Рамирез (Джорди Уайт), Джон 5 (Джон Лоури), Тим Скольд, Джинджер Фиш (Кенни Уилсон), Мадонна Уэйн Гейси (Пого) (Стефен Грегори Биер-мл.). Названием группы стал псевдоним ее вокалиста и бессменного лидера — Мэрилина Мэнсона (Брайан Уорнер). Псевдоним был составлен Уорнером из имени знаменитой американской киноактрисы Мэрилин Монро и фамилии не менее известного маньяка-убийцы Чарльза Мэнсона. Столь необычное соединение, по мысли Уорнера, обладало целым рядом значений, начиная от принципиального утверждения о неизбежности наличия в человеке двух начал (добра и зла) до протеста против того, что «Америка помещает убийц на обложку журнала „Таймс“, делая их столь же знаменитыми, как наших любимых кинозвёзд» (эссе «Колумбина: Чья это вина?»). Все остальные участники группы взяли аналогичные псевдонимы из женских имен и фамилий известных убийц. Двойственность стала отличительной чертой всего творчества группы, постоянно находящегося на границе массового и элитарного. Интеллектуальная сложность (преимущественно, в концептуальном плане), множественные аллюзии и реминисценции порой сочетаются в творчестве коллектива со слабыми и художественно неубедительными текстами, а оригинальные музыкальные решения граничат с тривиальными популярными мотивами. Имидж и музыкальный стиль группы меняется от альбома к альбому почти до неузнаваемости, что дает повод причислять ее и к индастриал, и к глэм-року, и к готик-року и даже к нью метал. Несмотря на то, что отдельные элементы перечисленных стилей присутствуют в музыке Marilyn Manson, полностью творчество группы не укладывается ни в одну из заявленных категорий. Дискография * Portrait Of An American Family (1994) * Smells Like Children (1995) * Antichrist Superstar (1996) * Mechanical Animals (1998) * Holy Wood (2000) * The Golden Age Of Grotesque (2003) * Lest We Forget: The Best Of(2004) * Eat Me, Drink Me (2007) * The High End of Low (2009) * Born Villain (2012) Видеоклипы «Portrait of an American Family» * Get Your Gunn (1994) * Lunchbox (1995) * Dope Hat (1995) «Smells Like Children» * Sweet Dreams (Are Made of This) (1995) «Antichrist Superstar» * The Beautiful People (1996) * Antichrist Superstar (1996) * Tourniquet (1997) * Cryptorchid (1997) * Man That You Fear (1997) Саундтрек «Спаун» * Long Hard Road Out of Hell (1997) Саундтрек «Шоссе в никуда» * Apple Of Sodom (1998) «Mechanical Animals» * The Dope Show (1998) * Rock Is Dead (1999) * I Don’t Like the Drugs (But the Drugs Like Me) (1999) * Coma White (1999) Саундтрек «Celebrity Deathmatch» * Astonishing Panorama of the Endtimes (1999) «Holy Wood (In the Shadow of the Valley of Death)» * The Fight Song (2000) * Disposable Teens (2000) * The Nobodies (2001) Саундтрек «Недетское кино» * Tainted Love (2001) «The Golden Age of Grotesque» * mOBSCENE (2003) * This Is the New Shit (2003) * (s)AINT (2004) «Lest We Forget» * Personal Jesus (2004) «Eat Me, Drink Me» * Heart-Shaped Glasses (When the Heart Guides the Hand) (2007) * Putting Holes In Happiness (2007) «The High End of Low» * Arma-Goddamn-Motherfucking-Geddon (2009) * Running to the Edge of the World (2009) «Born Villain» * No Reflection (2012) Скрыть...
Популярные аккорды Marilyn Manson:
алфавиту | просмотрам | случайно
  • В начале и в куплетах идёт:
    E|---------------------------------|
    B|---------------------------------|
    G|---------------------------------|
    D|-----5---6---5-------------------|
    A|-3-3---3---3---3-----6/8-----5/6-|
    E|-----------------4-4-----3-3-----|
    
    А…
  • Основная партия:
    
    E|------------------|-------------------|-------------------|
    B|----1---1---1---1-|-----1---1---1---1-|-----1-------1-----|
    G|-2----2---2---2---|---2---2---2---2---|-------1-------1---|
    D|------------------|-------------------|---2-----2-2-----2-|
    A|--0---------------|-3-----------------|-------------------|
    E|------------------|-------------------|-0-----------------|
    
    E|---------------------|
    B|-----1---1-----1---1-|
    G|---2---2---2-----2---|
    D|---------------------|
    A|-0-------------------|
    E|-------------3-------|
    
    Припев:
    
    E|-----------------|-----------------|
    B|-----------------|-----------------|
    G|-2-2-2-2-2-2-2-2-|-0-0-0-0-0-0-0-0-|
    D|-2-2-2-2-2-2-2-2-|-1-1-1-1-1-1-1-1-|
    A|-0-0-0-0-0-0-0-0-|-3-3-3-3-3-3-3-3-|
    E|-----------------|-----------------|
    
    E|-----------------|-----------------|
    B|-----------------|-----------------|
    G|-----------------|-2-2-2-2---------|
    D|-2-2-2-2-2-2-2-2-|-2-2-2-2-0-0-0-0-|
    A|-2-2-2-2-2-2-2-2-|-0-0-0-0-1-1-1-1-|
    E|-0-0-0-0-0-0-0-0-|---------3-3-3-3-|
    
    Переход…
  • Intro
    E|---------------------|
    B|---------------------|
    G|---------------------|
    D|-4-4------4-4----5-5-|
    A|-4-4------4-4----5-5-|
    E|-2-2------2-2----3-3-|
    ("I don?t like the drugs...")
    
    Verse (Guitar 1, with effect)
    E|-------------------------------------------------|
    B|-------------------------------------------------|
    G|-------------------------------------------------|
    D|-2h4p2-2-4--2h4p2-2--2h4p2-2-4--4-6-7--2h4p2-2-4-|
    A|-------------------------------------------------|
    E|-------------------------------------------------|
    
    (continued)
    E|-------------------/14-14-14-14-|
    B|--------------------------------|
    G|--------------------------------|
    D|-2h4p2-2--2h4p2-4---------------|
    A|--------------------------------|
    E|--------------------------------|
    
    Pre-Chorus…
  • Verse (Guitar 1, acoustic)        three times then:
    E|---------------------------------------|
    B|------0------0------0------0-----0---0-|
    G|----4------4------4------4-----5---5---|
    D|--7------7------7------7---------------|
    A|---------------------------------------|
    E|---------------------------------------|
    
    (continued)
    E|---------------------------------------------------|
    B|-------0-----0-----0-----0-----0-----0-----0-----0-|
    G|--5/7-----7-----7-----7-----5-----5-----4-----4----|
    D|---------------------------------------------------|
    A|---------------------------------------------------|
    E|---------------------------------------------------|
    
    Pre-Chorus…
  • Em                             C
    Hey god, why are you doing this to me?
    G                       D            D+    D
    am i not living up to what i?m supposed to be?
    Em                          C
    why am i seething with this…
  • Verse:
    
    |---------------------------------|
    |---------------------------------|
    |---------------------------------|
    |--2-2-2-5-5-2-/7^--2-5-2--0-2-0--|
    |--2-2-2-5-5-2-/7^--2-5-2--0-2-0--|
    |--2-2-2-5-5-2-/7^--2-5-2--0-2-0--|
    
    bridge:
    |--------------------------------------------|
    |--------------------------------------------|
    |--------------------------------------------|…
  • Hm      G    Em
    Hm      G    Em
    Hm      G    Em
    Dsus2   C    H
    
    Am    G     C      G       Am
    Yesterday was a million years ago
    Am        G             Dsus2
    In all my past lives I played an asshole
    Now I found you, it?s…
  • PART 1:
    E|----------------------------------------------------------|
    B|----------------------------------------------------------|
    G|--9-9-9-9-9-9-9-9/12-12-12-12-12-12-12-12/7-7-7-7-7-7-7/5-|
    D|--9-9-9-9-9-9-9-9/12-12-12-12-12-12-12-12/7-7-7-7-7-7-7/5-|
    A|--7-7-7-7-7-7-7-7/10-10-10-10-10-10-10-10/5-5-5-5-5-5-5/3-|
    E|-0--------------------------------------------------------|
    
    E|-----------------|
    B|-----------------|
    G|-5-5-5-5-5-5-5/4-|
    D|-5-5-5-5-5-5-5/4-|
    A|-3-3-3-3-3-3-3/2-|
    E|-----------------|…
  • "Files are waiting..."
    --------------------------------------------------------------------
    --------------------------------------------------------------------
    --------------------------------------------------------------------
    --10-12-13-6--------------------------------------------------------
    --------------------------------------------------------------------
    --------------------------------------------------------------------
    
    "In…
  • TUNING: standard tuning (E A D G B E)
    
    
     PART 1:
    E|----------------------------------------|
    B|----------------------------------------|
    G|----------------------------------------|
    D|--8/10---13--12~~~----8/10---13--12-10--|
    A|----------------------------------------|
    E|----------------------------------------|…
  • E|-3--|
    B|-3--|
    G|-0--|
    D|-5--|
    A|-5--|
    E|----|
    
    Acoustic guitar intro :
    
    [Verse 1]
    
    (no lyrics -------------    -----    ---  --  -> )
    Asus2           Amin           Asus2          Amin
    
    We have no future, heaven wasn?t…
  • Main Riff
    
    E|-------------------------------|
    B|-------------------------------|
    G|-------------------------------|
    D|-4-4-----4-4-----4-4-----4-4-7-|
    A|-4-4-----4-4-----4-4-----4-4-7-|
    E|-2-2-----2-2-----2-2-----2-2-5-|
    
    Pre-chorus
    
    E|--------------------------------|
    B|--------------------------------|
    G|--------------------------------|
    D|-7----10----12----7----10----12-|
    A|-7----10----12----7----10----12-|
    E|-5----8-----10----5----8-----10-|
    
    Chorus
    
    E|-------------------------------------------------|
    B|-------------------------------------------------|
    G|---11--9-11-9---11--9-11-9---9--7-9-7---9--7-9-7-|
    D|---11--9-11-9---11--9-11-9---9--7-9-7---9--7-9-7-|
    A|---9---7-9--7---9---7-9--7---7--5-7-5---7--5-7-5-|
    E|-------------------------------------------------|
    
    E|--------------------------------------------------|
    B|--------------------------------------------------|
    G|---7--6-7-6---7--6-7-6----6-6-6-6-6-6-9-9-9-9-9-9-|
    D|---7--6-7-6---7--6-7-6----6-6-6-6-6-6-9-9-9-9-9-9-|
    A|---5--4-5-4---5--4-5-4----4-4-4-4-4-4-7-7-7-7-7-7-|
    E|--------------------------------------------------|
    
    Listen…
  • TUNING: standard tuning (E A D G B E)
    
     INTRO:
    E|--------------------------------------|
    B|--------------------------------------|
    G|--7/9-9-9-9-9-9-9---14-14-14-14/16-16-|
    D|--7/9-9-9-9-9-9-9---------------------|
    A|--5/7-7-7-7-7-7-7---12-12-12-12/14-14-|
    E|--------------------------------------|…
  • Am-Amsus4-Am-Amsus4-Am-Amsus4-G-Am
    
    Sunege your ball and make a few small
    Given you no time stay with all.
    To pain is so big you feel in nothing in all.
    
    Am-G-D-Am
    
    Working class hero in something be.
    Working class hero…
  • [G|---------------------------------------|
    D|---------------------------------------|
    A|---------------------------------------|
    E|----8-⁄-2--2-2-2-4--2-2-2-2-(2/5)--7-5-|
    
    G|---------------------------------------|
    D|---------------------------------------|
    A|----------------------------------5-7--|
    E|----------2-2-2-4--2-2-2-2-(2/5)-------|
    
    G|---------------------------------------|
    D|---------------------------------------|
    A|---------------------------------------|
    E|------2-2-2-4--2-2-2-2-(2/7)--7h9-5h7--|
    
    G|---------------------------------------|
    D|-------------------4--2-----------4----|…
  • A5                        G5
    I want to wake up in your white, white sun
    A5                                 G5
    I want to wake up in your world with no pain
    A5                                G5
    But I?ll just suffer in a hope…
  • INTRO:
    
    E|--------------------------------------------|
    B|--------------------------------------------|
    G|--------------------------------------------|
    D|--------------------------------------------|
    A|--------------------------------------------|
    E|--0-0-0-0-0-0-0-0-0-0-0-0-0-0-0-0-0-0-0-0-0-|…
  • Intro/Verse (clean w/ tremelo)
    E|------0------------0------------------------------|
    B|--------0--------3-1----------0-------------------|
    G|-------------------0--------0--------0--3/5--2-2--|
    D|---2----------4----2------0--------2----3/5--2-2--|
    A|-0--------3/5------3----2--------3------1/2--0-0--|
    
    
    Pre-Chorus…
  • Intro: Em Asus
    
    
         Em       Asus
    They slit our throats
    Em           Asus
    Like we were flowers
            Em
    And our milk
        G
    Has been
      F#   Em
    Devoured
             Asus
    When you want it
              Em
    It goes away too fast…
  • Intro: Fm# Em Fm# A 
    
    e--------------- 
    h--------------- 
    G-------2-2-2--- 
    D|---4-4---2-2---4--2-2-2--- 
    A|---4-4---2-2---4--0-0-0--- 
    E|---2-2---0-0---2---------- 
    
    
    Nothing suffocates you more than
    the passing of everyday…
  • Fill (Gtr. 1) (clean)
    D|--1-------|
    A|--1-------|
    D|--1-------|
    
    
    Intro (Gtr. 1) (w/ dist.)
    D|-1-1-------1-1-----------------1-1-------7-7-7-7--|
    A|-1-1--4h6--1-1--6p4------------1-1--4h6--7-7-7-7--|
    D|-1-1-------1-1-----------------1-1-------7-7-7-7--|
    
    
    Verse/Chorus…
  • Standard tuning
    
    
    Verse (chorus): (x6)(0:23)
    |----------------|----------------|----------------|----------------|
    |----------------|----------------|----------------|----------------|
    |----------------|----------------|----------------|----------------|
    |0-0-0-0-0-0-0-0-|3-3-3-3-3-3-3-3-|1-1-1-1-1-1-1-1-|0-0-0-0-0-0-0-0-|
    
    
    Chorus…
  • Tuning: E A D G
    
    
    Along w/ guitar   play 4x
    G-------------------------------
    D-------------------------------
    A-------------------------------
    E-0-2-0-------------------------
    
    
    Main Riff        play 11x
    G-------------------------------
    D-------------------------------
    A-------------------------------
    E-0-4-0-4-0-0-4-0-4-0-0-2-0-----
    
    G-------------------------------
    D-------------------------------
    A-5-4-3-2-5-4-3-2---------------
    E-------------------------------
    
    
    Chorus(same…
  • Intro (DJ noises)
    You can re create the DJ noises by doing a pik scrape on the A string all the way up the neck
    
    
    Verse - Just bass (“Use me when you wanna...”)
    
    
    Pre-Chorus (Most likely octave higher)(“User friendly…
  • Standard tuning: (EGBDAE)
    
    
    There is only really 3 parts two the song:
    
    riff 1                              riff 2(guitar 2)
    |-------- Play this    meanwhile... |----------------------
    |-------- about 8…
  • intro:
    e--1---1---0---0---|------------------|
    b----3---3---3---3-|-0-2-3-2---2-3-2--|
    g------------------|----------4-------|
    d--0---0---0---0---|------------------|
    a------------------|------------------|
    e------------------|------------------|
    
    
    Verse
    e--------------------------------------|
    b--------------------------------------|
    g---4--6--7----------------------------|
    d---4--6--7----------------------------|
    a---2--3--5----------------------------|
    e--------------------------------------|…
  • Chords used - Just use standard tuning:
      
         G5   Bb5  C5   A5   B5   E5   G    Bb   C    A
     
    e----------------------------------3----1----3----5----
    B----------------------------------3----3----5----5----
    G---------3----5--------------9----4----3----5----6----
    D----5----3----5----7----9----9----5----3----5----7----
    A----5----1----3----7----7----7----5----1----3----7----
    E----3----1----3----5----7----7----3----1----3----5----…
  • Intro
      B|-------------------------------------0-----0----|
      G|-------------------------------------0-----0----|
      D|-5--0---0--2---0--0--0---0--2----0-----4--------|
      A|-4--0---1--3---0--0--1---0--3----0-----5--------|…
  • Tune to Drop D (D A D G B E)
    
    
    Verse (Gtr. 1) (“Into hard…….”)
    D|-9-9--8-82--2-2--0-2--(2)/5-| Я high D
                          ^ hold till bracketed note then slide to 5
    
    
    Verse 2 (Gtr. 1)
    D|-9-9--8-82--2-2--0-2--(2)/5-|…
  • Standard tuning
    
    
    Intro pt.1: (0:12)
    |---------------|
    |---------------|
    |---------------|
    |12---12---12---|
    
    Intro pt.2 (solo 1): (x6)(0:13)
    |------------|------------|------------|------------|
    |------------|------------|------------|------------|
    |------------|------------|------------|------------|
    |0---R---R---|0---R---R---|0---R---R---|3---3---3---|
    
    
    Verse…
  • A) Eden Eye
    
    Pre-chorus: (1:01)
    |----------------|----------------|----------------|----------------|
    |----------------|----------------|----------------|----------------|
    |----------------|----------------|----------------|----------------|
    |5-5-5-5-5-5-5-5-|5-5-5-5-5-5-5-5-|5-5-5-5-5-5-5-5-|5-5-5-5-5-5-5-5-|
    
    |----------------|----------------|------------------------|----------------|
    |----------------|----------------|------------------------|----------------|
    |----------------|----------------|------------------------|----------------|
    |5-5-5-5-5-5-5-5-|5-5-5-5-5-5-5-5-|10-10-10-10-10-10-10-10-|8-8-8-8-8-8-7-7-|
    
    
    Chorus:…
  • G------------------------------------------------
    D------------------------------------------------
    A--5--5--3--5-8-8-5------5--5--3--5------
    E-------------------------------------------------
    
    G-----------------------------------------------------------------------------
    -
    D-----------------------------------------------------------------------------
    -
    A--5---------------5-5----------------5---------------5-5---5-8-8-8-----
    E-----------------------------------------------------------------------------
    
    --
    
    G-------------------------------------------------------------------
    D--------------------------------------------------------------------
    A------------------3-3-3-3-3-3-3-3-3-3-3-3-3-3-3-3-------
    E--------------------------------------------------------------------…
  • Verse 1
    e|-----------0------------0--0--------------------------------------------------|
    B|-----------1------------0--0--------------------------------------------------|
    G|-----------2------------4--2--------------------------------------------------|
    D|------2----2------------5--3--------------------------------------------------|
    A|---0-------0--------5---5--3--------------------------------------------------|
    E|-----------------3------3--1--------------------------------------------------|Play…
  • Intro
    
    1|----19---15---19---15---|---------------|---19--17--15--14---|
    2|------------------------|--12----12-----|--------------------|
    3|------------------------|-----11----11--|--------------------|
    4|------------------------|---------------|--------------------|
    5|------------------------|---------------|--------------------|
    6|------------------------|---------------|--------------------|
    
    
    Verse…
  • Intro: 
              
                 Fmin   Fm/D#  Fm/D   C#maj7 (Fm/C#)
              E|-1------1------1------1------|
              B|-1------1------1------1------|
              G|-1------1------1------1------|
              D|-3------1------0------3------|…
  • Tuning - Drop D
    
    E B G D A D
    
    
    INTRO 
    
    |---------------------------------------------------------|
    |---------------------------------------------------------|
    |---------------------------------------------------------|
    |---------------------------------------------------------|
    |--5--5--5--5----5--5--5--5----5--5--5--5--5--5--5--5--5--|
    |--0--0--0--0----0--0--0--0----0--0--0--0--0--0--0--0--0--|
    
    |---------------------------------------------------------|
    |---------------------------------------------------------|
    |---------------------------------------------------------|
    |---------------------------------------------------------|
    |--5--5---5--5---5--5--5--5--5----------------------------|
    |--0--0---0--0---0--0--0--0--0----------------------------|
    
    
    |-------------------------|-------------------------------|
    |-------------------------|-------------------------------|
    |-------------------------|-------------------------------|
    |-------------------------|-------------------------------|
    |--5--5--5--5--5--5-------|--5--5--5--5--5--5----19^------|
    |--0--0--0--0--0--0-------|--0--0--0--0--0--0----19^------|…
  • Tuned down 1/2 step
    
    
    Riff 1 (Guitar 1)
    eb---------------------------------------------------------
    Bb--13--12--10---13--12--10---13--13--12--10---13--12--10--
    Gb---------------------------------------------------------
    Db---------------------------------------------------------
    Ab---------------------------------------------------------
    Eb---------------------------------------------------------
    
    (continued)
    eb---------------------------------------------------------
    Bb--13--12--10---13^---15^---------------------------------
    Gb---------------------------------------------------------
    Db---------------------------------------------------------
    Ab---------------------------------------------------------
    Eb---------------------------------------------------------
    
    
    Riff…
  • Intro
    G|-4-4-----7-7--|--------|-4-4-----7-7---|-----------|
    D|-4-4-3-3-7-7--|-5555---|-4-4-3-3-7-7---|-5--5----5-|
    A|-2-2-3-3-5-5--|--------|-2-2-3-3-5-5---|-----------|
    E|-----1-1------|--------|-----1-1-------|-----------|…
  • Intro/Verse
    
    G-----------------------------------------------------
    D-----------------------------------------------------
    A:-----0-0-0-2-2-3-3-3-2-2-2-0-0-------0-0-0-2--------
    E:2-2-2--------------------------2-2-2---------0-0-0-0
    
    
    Bridge:
    
    G-----------------------------------------------------
    D-----------------------------------------------------
    A:--3-2-0-2-0---3-2-0-2-0---3-2-0-2-0-----------------
    E:2-----------2-----------2-----------0-0-0-0---------…
  • Standard tuning
    
    
    Intro pt.1 (verse 1): (x2)(0:04)
    |----------------|
    |----------------|
    |----------------|
    |3-333-31-33-3-33|
    
    
    Intro pt.2 (chorus/pre-chorus/fill/verse 2/outro pt.1): (x4)(0:09)
    |----------------|----------------|
    |----------------|----------------|
    |6-666-6---------|----------------|
    |-------6-66-6-66|3-333-31-33-3-33|
    
    
    Verse…
  • --------------------------------------
    --------------------------------------
    --------------------------------------
    --6--------------6--------------------
    --4-5---2-3-2--5-4-5--2h-3-2h-3-------
    ----3---0-1-0--3---3--0h-1-0h-1-------
    
    Fill1
    -----‌-------------------------------------------
    -----‌-------------------------------------------
    -----‌-------------------------------------------
    -----‌-------------------------------------------
    --5--‌------5-5-5-5-7-7-7-7-8-8-8-8/12-12-12-12--
    --3--‌------3-3-3-3-5-5-5-5-6-6-6-6/10-10-10-10--
    Let…
  • Intro/Bridge (Synth. Arr for Gtr. 3)
    E|----------12---------|
    B|-12-11-------12-11---|
    G|-------9-----------9-|
     Very Weird Rhythm To This
    
    
    Verse (Gtr. 1) (w/ tremelo)
    G|-7^---(7)---|
       ^ Ѕ step then back down to bracketed…
  • Intro/Pre-chorus/Chorus
              A|-5-5-5555--2-2-2222--5-5-5555--2-2-2222-|
              E|----------------------------------------|
              
              Intro/Pre-chorus/Chorus con't
              A|-------------------------------------------|…
  • Tuning = Standard
    
    
    CHORUS:
    
    e}----------------------------------------------------------{
    B}----------------------------------------------------------{
    G}----------------------------------------------------------{
    D}--2---2---2-0-5-0-2-0-5-0-2-0-5--5--5--5--5--5-2----------{
    A}--2---2---2-0-5-0-2-0-5-0-2-0-5--5--5--5--5--5-2----------{
    D}--2---2---2-0-5-0-2-0-5-0-2-0-5--5--5--5--5--5-2----------{
    
    
    VERSE:
    
    e}----------------------------------------------------------{
    B}----------------------------------------------------------{
    G}----------------------------------------------------------{
    D}--2-----2/5-0-2---5+-5+-5+-5+-5+--------------------------{
    A}--2-----2/5-0-2-------------------------------------------{
    D}--2-----2/5-0-2-------------------------------------------{
    
    
    RIFF…
  • Intro:
    G:--------------|--------------|
    D:--------------|--------------|
    A:--------------|--------------|
    E:-15-------|--------/-|
    
    
    Riff 1:
    G:-----------|------------|-----------|------------|-----------|------------|-----------|
    D:-----------|----2-------|-----------|----2--5--2-|-----------|----2-------|-----------|
    A:-0***-3***-|-5-----5--3-|-0***-3***-|-5----------|-0***-3***-|-5-----5--3-|-----------|
    E:-----------|------------|-----------|------------|-----------|------------|-0--3*****-|
    
    G:------------|-----------|------------|-----------|------------|-----------|------------|
    D:------------|-----------|----2-------|-----------|----2--5--2-|-----------|----2-------|
    A:------------|-0***-3***-|-5-----5--3-|-0***-3***-|-5----------|-0***-3***-|-5-----5--3-|
    E:-**-0--3--0-|-----------|------------|-----------|------------|-----------|------------|
    
    G:-----------|------------|
    D:-----------|------------|
    A:-----------|------------|
    E:-0--3*****-|-**-3--0--3-|
    
    
    Riff…
  • tune all strings down half a step (Eb Ab Db Gb Bb eb)
             
    
              riff 1 (palm mute)
              eb||-----------||
              Bb||-----------||
              Gb||-----------||
              Db||-----------||…
  • Standard Tuning
    
    
    INTRO:
    
    E|----------------|
    B|----------------|
    G|--4-4-----------|
    D|--4-4--x6-------|
    A|--2-2-----------|
    E|----------------|
     (Hey! Hey!)
    
    
    RIFF 1:
    
    E|------------5--------------5--------------5----------------------|
    B|-----------------------------------------------------------------|
    G|--4-4-7-4---2b---4-4-7-4---2b---4-4-7-4---2b---4444-7-4-10-9-7---|
    D|--4-4-7-4--------4-4-7-4--------4-4-7-4--------4444-7-4-10-9-7---|
    A|--2-2-5-2--------2-2-5-2--------2-2-5-2--------2222-5-2-8--7-5---|
    E|-----------------------------------------------------------------|
    
    
    RIFF…
  • Tuning: D A D G B E
    Tempo: 72
    
    
    Verse 1 (4x)
    Verse 2 Intro (1x)
    Verse 2 (2x)
    Verse 2 Outro (1x)
    Verse 3 (1x)
    
    Chorus 1 (3x)
    Chorus 1 Outro (1x)
    
    Verse 1 (3x)
    Verse 2 Intro (1x)
    Verse 2 (2x)
    Verse 2 Outro (1x)
    Verse 4 (1x)
    
    Chorus…
  • Chorus
    e----------------------------------------------------------
    B----------------------------------------------------------
    G-------7/9--9-9-9-9--7-7--------7/9--9-9-9-9--10-10-------
    D--2-2--7/9--9-9-9-9--7-7---2-2--7/9--9-9-9-9--10-10-------
    A--2-2--5/7--7-7-7-7--5-5---2-2--5/7--7-7-7-7---8--8-------
    E--0-0----------------------0-0----------------------------
    
    (continued;…
  • Standard Tuning
    
    
    First Part
    
    e------------
    B------------
    G------------
    D------------
    A-4-4----4-4-
    E-2-2----2-2-
    
    
    Second Part
    
    e---------------------------------------
    B---------------------------------------
    G---------------------------------------
    D-----------6-6-6-6--5-5-5-5-9/11-9/11--
    A-4-4-4-4---4-4-4-4--3-3-3-3-7/9--7/9---
    E-2-2-2-2-------------------------------
    
    
    Third…
  • Riff 1 (main; light distortion):
    
              e|-------------------------------------------|
              B|-------------------------------------------|
              G|-------------------------------------------|
              D|---2---2--2---4--6p5---7-7-7---6p5h6p5-----|…
  • Intro        x2
    --------------------------
    --------------------------
    --------------------------
    -5-4-3-5^--5-4-3-7^-------
    --------------------------
    --------------------------
    
    
    Verse
    -------------------------------------------
    -------------------------------------------
    -15--15-----15-----15--15-----15-----15----
    -------------------------------------------
    -------------------------------------------
    -------------------------------------------
    Pinch…
  • Tuned one and a half steps down (low to high: Db Gb B E)
    
    
    Intro (verse/outro): (x16)
    |--------------------|
    |--------------------|
    |--------------------|
    |12---12---12---12---|
    
    
    Verse (x16)
    
    
    Chorus: (x4)(1:16)
    |----------------------|------------------|
    |----------------------|------------------|
    |----------------------|------------------|
    |12-12-12-10-12-10-3-*-|*-*-*-*-12---10---|
    
    
    Bridge…
  • Standard tuning
    
    
    Intro (verse 2): (x2)(0:33)
    |----------------|----------------|----------------|----------------|
    |----------------|----------------|----------------|----------------|
    |3-*-*-*-5-*-*-*-|1-*-*-*-------/-|3-*-*-*-5-*-*-*-|----------------|
    |----------------|--------1-*-*---|----------------|5-*-*-*-*-*-*-*-|
    
    
    Verse…
  • Standard tuning
    
    
    Intro pt.1:
    |---|---|---|----------------|----------------|---|
    |---|---|---|----------------|----------------|---|
    |---|---|---|------------.---|------------.---|---|
    |-R-|-R-|-R-|R---R---R---0---|R---R---R---1---|-R-|
    
    
    Intro…
  • Tuned a half step down
    
    
    Pre-chorus: (0:57)
    |----------------|-----------------|
    |----------------|-----------------|
    |----------------|-----------------|
    |0-*-*-*-*-*-*-*-|*-*-*-*-*-*-/12-|
    
    
    Chorus: (1:01)
    |------------------------|------------------------|------------------------|
    |------------------------|------------------------|------------------------|
    |------------------------|------------------------|------------------------|
    |17-17-17-17-17-17-17-17-|15-15-15-15-15-15-15-15-|17-17-17-17-17-17-17-17-|
    
    |------------------------|------------------------|------------------------|
    |------------------------|------------------------|------------------------|
    |------------------------|------------------------|------------------------|
    |15-15-15-15-15-15-15-15-|17-17-17-17-17-17-17-17-|15-15-15-15-15-15-15-15-|
    
    |------------------------|-----------------|----------------|
    |------------------------|-----------------|----------------|
    |------------------------|-----------------|----------------|
    |17-17-17-17-17-17-17-17-|10-*-*-*-*-*-*-*-|*-*-*-*-*-/----|
    
    
    Rest…
  • Standard Tuning (E A D G B e)
              
    
              Guitar one
              e-------------------------------------------0-----0--------
              B---0-----------------------------------------3-----3------
              G-----3----2-1---0-----------------------------------------…
  • Tuning - 7 string with bottom string tuned down to A
    
    E B G D A E A
    
    
    Intro
    
    |------------------------------------------------------------------------------------|
    |------------------------------------------------------------------------------------|
    |---4-4---------4-4---------7-7---------6-6------------------------------------------|
    |----------4-----------4-----------5-----------4-------------------------------------|
    |--------5---5-------5---5-------7---7-------5---7-----------------------------------|…
  • G-|-------------------------------------|------------------------|
    D-|-*----------------------------------*|*----------------------*|
    A-|-*----------------------------------*|*----------------------*|
    E-|---2-2-2-2-/5-5-5-5-2-2-2-2/-9-9-8--|--2-2-/-9-9-8-8-7-8-7--|…
  • main riff
    e|-----------------------------------------|
    B|-----------------------------------------|
    G|-----------------------------------------|
    D|-----------------------------------------|
    A|--------888------8-8-10------------------|
    E|---0--0-----0-0---------0-0-12-0--12-0-0-|
    
    fill
    e|-----------------------------------------|
    B|-----------------------------------------|
    G|-----------------------------------------|
    D|-----------------------------------------|
    A|-----------------------------------------|
    E|----00--------------00-------------------|
    
    
    chorus
    e|-----------------------------------------|
    B|-----------------------------------------|
    G|-----------------------------------------|
    D|------8-8-8-8-8------12121212--55--------|
    A|------8-8-8-8-8------12121212--55--------|
    E|-----10-10-10-10-----10101010--77--------|
    
    e|-----------------------------------------|
    B|-----------------------------------------|
    G|-----------------------------------------|
    D|-----3---8-8-8-8-8---10-10--5-5----------|
    A|-----3---8-8-8-8-8---10-10--5-5----------|
    E|-----5--10-10-10-10--12-12--7-7----------|
    
    
    solo
    e|--------------/13-12--10-9---------------|
    B|1/---------------------------------------|
    G|-----------------------------------------|
    D|-----------------------------------------|
    A|-----------------------------------------|
    E|-----------------------------------------|…
  • Chorus (verse 1): (x8)(0:53)
    |-----------------|-------------------|
    |-----------------|-------------------|
    |-----------------|-----------12-*-*--|
    |0-*-*-r-12----r-|0---r-.12---------|
    
    
    Verse 1 (x4)
    
    
    Pre-chorus: (x4)(1:32)
    |-----------------|-------------------|
    |-----------------|-------------------|
    |-----------------|-------------------|
    |12-*-*-*-0-*-*-*-|15-*-*-14-*-*-13---|
    
    
    Chorus…
  • Riff 1: (x8)
    G:---------------|---------12---|---------------|---------12---|---------------|---------12---|
    D:-------5-7-7-5-|-*****-9----9-|-------5-7-7-5-|-*****-9----9-|-------5-7-7-5-|-*****-9----9-|
    A:-7--7----------|--------------|-7--7----------|--------------|-7--7----------|--------------|
    E:---------------|--------------|---------------|--------------|---------------|--------------|
    
    G:---------------|--------12---12-|
    D:-------5-7-7-5-|-****-9----9----|
    A:-7--7----------|----------------|
    E:---------------|----------------|
    
    
    Riff…
  • Intro
    
    G-----------------------------------------------
    D-----------------------------------------------
    A-----------------------------------------------
    E-5-5-5-5-5-4-4-4-4-4-4-5-5-5-5-5-5-4-4-4-4-4-4-
    
    THEN
    G-----------------------------------------------
    D-----------------------------------------------
    A--7-7-6-6-6-5-5-4-4-1--------------------------
    E-5---5---5-3---3---3---------------------------
    
    
    Verse
    
    G-----------------------------------------------
    D-----------------------------------------------
    A-----------------------------------------------
    E-7>-6>-3>-1>---7>-6>-9>---9>-------------------
    
    
    Chorus
    
    G-----------------------------------------------
    D-----------------------------------------------
    A-----------------------------------------------
    E-1-1-1-3-3-4-4-6-6-6---------13-11-------------…
  • G
    If you see me walking down the street
                   Em
    Staring at the sky and dragging my two feet
                     C
    You just pass me by
                      D
    You still make me cry
                          G
    But you could…
  • Main Riff:
    e----------------------------------------------
    b----------------------------------------------
    g----------------------------------------------
    d----------------------------------------------
    a--0-7-0-3-0-5-3-3-3-3-3-3-3---0-7-0-3-0-5-----
    E------------------------------------------3---…
  • Tuning: E A D G B E
    
    
    Intro: Gtr.1 Play past the first bar 11x
    Fig.1
    --------|-----------||
    --------|-----------||
    --------|----------.||
    --------|----------.||
    --3-4-5-|-2-3-4-53-||
    --1-2-3-|-0-1-2-31-||
    
    
    (Inro continued)…
  • Intro/verse/chorus
    
    G:----------------------------------------------------|
    D:----------------------------------------------------|
    A:-7-7-----7-7----------------------------------------|
    E:-----8-8-----7-7-x--x-x-8-8-5-5-5-8----7-----------0|…
  • Verse
              
              e------2--4b-
              B-4-4--------
              G------------
              D------------
              A------------
              D------------
              
    
              Chorus
              
              e--------------------------…
  • Intro, (0:01-0:26)
    e]-------------------------------------------
    B]-------------------------------------------
    G]--------------7/9-9------------------------
    D]--X-X-X-X-X-X-7/9-9-X-X-X-5-X-X-X--14-14---
    A]--X-X-X-X-X-X-5/7-7-X-X-X-5-X-X-X--13-13---
    E]--X-X-X-X-X-X-------X-X-X-3-X-X-X----------
    
    
    e]---------------------------------…
  • G-|---------------------------------------------|
    D-|---------------------------------------------|
    A-|---------7-----7-----7---------5-----5-----5-|
    E-|-5-5-5-5---5-5---5-5---5-5-5-5---5-5---5-5---|
              Intro…
  • G-|---------------------|----------------------------------------------|
    D-|---------------------|----------------------------------------------|
    A-|---------------------|-7-7-7---------------------7-7-7------8~------|
    E-|-0-0-7-0-7-5-0-0-3-5-|-------6-6-6-3-3-3-5-5-3-5------6-6-6----3-3--|…
  • Pre chorus
              [-----------------------------------------------------------]
              [-----------------------------------------------------------]
              [-----------------------------------------------------------]…
  • Riff 1: (x2)
    G:--------------|---------------|--------------|---------------|--------------|---------------|
    D:-7--7-7--5--5-|---------------|-7--7-7--5--5-|-------------7-|-7--7-7--5--5-|------------5--|
    A:--------------|-7--5--0-3-5-7-|--------------|-7--5--0-5-7---|--------------|-7--5-0-5-7---7|
    E:--------------|---------------|--------------|---------------|--------------|---------------|
    
    G:--------------|-------------5-7-|
    D:-7--7-7--5--5-|---------5-7-----|
    A:--------------|-7--5--0---------|
    E:--------------|-----------------|
    
    
    Riff…
  • Standard tuning
    
    
    Intro: (played softly)
    |----------------|----------------|----------------|----------------|
    |----------------|----------------|----------------|----------------|
    |7-*-*-*-*-*-*-*-|*-*-*-*-*-7-7-7-|----7-------5-7-|----7-------5-7-|
    |----------------|----------------|00-0--00-00-----|00-0--00-00-----|
    
    |----------------|----------------|
    |----------------|----------------|
    |----7-------5-7-|----7-------5-7-|
    |00-0--00-00-----|00-0--00-00-----|
    
    
    Verse:…
  • prick your finger it is done...
      the moon has now eclipsed the sun...
      the angel has spread his wings...
      the time has come for bitter things...
    
    e:-----------------------------|
    B:-----------------------------|
    G:-----------------------------|
    D:-----------------------------|
    A:-----------------------------|
    E:---10---5----5-6-8---7-------|…
  • Chords used:
       A   D7   E7  Asus  Dm7  F#m   B    A? 
    e--0----2----0----0----1----2----2----5--------------------
    B--2----1----3----2----1----2----4----5--------------------
    G--2----2----1----0----2----2----4----6--------------------
    D--2----0----2----2----0----4----4----7--------------------
    A--0---------2----0---------4----2----0--------------------
    E------------0--------------2------------------------------
    
    
    Intro:
    A…
  • verse
    |-------------------||--------------------||-----------------------
    |-------------------||--------------------||-------------------------
    |-------------------||--------7//9-9(7)-||---------------------------
    |-2-2-2-2--2-2--9-9-||-2-2-2--7//9-9(7)-||---------------------------
    |-2-2-2-2--2-2--7-7-||-2-2-2--5//7-7(5)-||--------------------------
    |-0-0-0-0--0-0--0-0-||-0-0-0--------------||------------------------…
  • Intro:
    G:------------|------------|-----------------|-----------------|-----------------|------------------|
    D:------------|------------|-----------------|-----------------|-7-7-7-7-7-7-7-7-|-7-7-7-7-7-7-7-7/-|
    A:-R--R--R--R-|-R--R--R--R-|-5-5-5-5-5-5-5-5-|-5-5-5-5-5-5-5-5-|-----------------|------------------|
    E:------------|------------|-----------------|-----------------|-----------------|------------------|
    
    G:------------|------------|------------|------------|------------|------------|------------|
    D:------------|------------|------------|------------|------------|------------|------------|
    A:-R--R--R--R-|-R--R--R--R-|-R--R--R--R-|-R--R--R--R-|-R--R--R--R-|-R--R--R--R-|-R--R--R--R-|
    E:------------|------------|------------|------------|------------|------------|------------|
    
    G:-------------|
    D:-------------|
    A:-R--R--R--7-|
    E:-------------|
    
    
    Riff…
  • Tuning: Drop D (D A D G B E)
    
    
    Intro/Verse/Fill 1
    D|-3-0-0-3-0-0-3-0-0-3-0-0-3-0-5--
    A|-3-0-0-3-0-0-3-0-0-3-0-0-3-0-5--
    D|-3-0-0-3-0-0-3-0-0-3-0-0-3-0-5--
    
    
    Intro/Verse/Fill 1 (cont.)
    D|-3-0-0-3-0-0-3-0-0-3-0-0-6-5-3-|
    A|-3-0-0-3-0-0-3-0-0-3-0-0-6-5-3-|
    D|-3-0-0-3-0-0-3-0-0-3-0-0-6-5-3-|
    
    
    Pre-Chorus
    D|-6-6-6-6-6-6-6-6-6-6-6-6-5-3-0-|
    A|-6-6-6-6-6-6-6-6-6-6-6-6-5-3-0-|
    D|-6-6-6-6-6-6-6-6-6-6-6-6-5-3-0-|…
  • Tuning: Drop D
    
    
    INTRO/VERSE: 
    
    e|----------|
    b|----------|
    g|----------|
    d|-0-6-0----|
    a|-0-6-0----|
    d|-0-6-0----|
    
    (Continued): Repeat a few times
    
    e|------------------------|
    b|------------------------|
    g|------------------------|
    d|-------0-6-0------------|
    a|-XXXXX-0-6-0-XXXXX------|
    d|-XXXXX-0-6-0-XXXXX------|
    
    
    RIFF…
  • Normal tuning: G D A E
    
    
    Intro
    
    D|---0---0----0-|
    A|-0---0----0---|
    
    D|---0---0----0-|
    A|-1---1----1---|
    
    D|---0---0----0-|
    A|-0---0----0---|
    
    A|--0--3--0--3---0--3-|
    
    D|---0---0----0-|
    A|-0---0----0---|
    
    D|---0---0----0-|
    A|-1---1----1---|
    
    D|---0---0----0-|
    A|-0---0----0---|
    
    D|---3---3----3-|
    A|-0---0----0---|
    
    
    Verse
    
    D|---0---0----0-|
    A|-0---0----0---|
    
    D|---0---0----0-|
    A|-1---1----1---|
    
    D|---0---0----0-|
    A|-0---0----0---|
    
    D|---0---0----0-|
    A|-1---1----1---|
    
    
    sometimes,…
  • G------------------------
    D------------------------
    A------------------------
    E-2-2-0-2-0-2-0-3-3-5-5--
    
    G---------------
    D---------------
    A-3-2-----------
    E-----3-2-2-3-0-
  • PART I
    
    G|----------------------------------------------------------------------|
    D|--2-2-2-2-2-2-2-2---2-2-2-2-2-2-2-2---2-2-2-2-2-2-2-2---2-2-2-2-2-2-2-|
    A|----------------------------------------------------------------------|
    E|----------------------------------------------------------------------|
    
    
    PART…
  • G-|--------------------------------------|------------------------------------|
    D-|------------------------------------*-|---------------------------5--------|
    A-|-7-5-7--7-5-7--7-5-7----------------*-|-7-7-5-7-5-7-5-7-5-7-7-5-7--7-7-7-5-|
    E-|---------------------3-3-3-3--6-6-6---|------------------------------------|…
  • Intro (verse 1/fill): (x2)(0:01)
    |----------------|----------------|----------------|----------------|
    |----------------|----------------|----------------|----------------|
    |----7757--/-7---|----7757--/-7---|----7757--/-7---|5-555-55.555777-|
    |3-0------0----0-|3-0------0----0-|3-0------0----0-|----------------|
    
    
    Verse…
  • Standard Tuning
    
    
    INTRO:
    
    e|------------------------------------|
    b|------------------------------------|
    g|------------------------------------|
    d|--9-9---9-9---9-9---9-93--------|
    a|--9-9---9-9---9-9---9-93--------|
    e|--7-7---7-7---7-7---7-71/7------|
    
    
    RIFF…
  • First Verse
    
    E|---5-6------5-6-------5-6--------9--8-----5-6-------9-8-----5-6-------9-8----5-6-------
    A|---------5-6------5-6--------5-6------------------5-6-----------------5-6--------------
    D|---------------------------------------------------------------------------------------
    G|---------------------------------------------------------------------------------------
    
    First…
Наверх