Аккорды «Marvelous 3»

Популярные аккорды Marvelous 3:
алфавиту | просмотрам | случайно
  • (% signifies a bunch of the surrounding note; for instance, 3%3 means a)
    (ton of 3's are played.  You'll know what I mean if you hear the song. )
    
    (do nothing during intro)
    
    Riff A
    ======
    G:---------------------|
    D:---------------------|
    A:---2-3%3-0%0-----3%3-|
    E:-3-----------1%1-----|
    
    Riff…
  • Riff A
    ======
    G:----------------------------------------------------------|
    D:----------------------------------5-0-----5---5-0-----5---|
    A:-----------------------------5555-----2-3---3-----2-2---2-|
    E:-33333333-22222222-000000000------------------------------|
    
    Riff…
  • Verse 1: clean
    Verse 2: Distortion
    (For verse 1 & 2 I am not exactly sure of the strokes so I just gave
    the
    chords)
    e --------0------------0---------0--------------2------------
    B --------2------------2---------2--------------3------------
    G…
  • E|--------------------------------------------------------
    B|--------------------------------------------------------
    G|--2-------------------------4---------------------------
    D|--2------------4------------4-----------2---------------
    A|--0---2h4p2p0--4---2h4p2p0--2--2h4p2p0--2---------------
    E|---------------2------------------------0----2-0-2-0----
    
    repeat…
  • ------------------------------------------------------------------------------ 
       ------------------------------------------------------------------------------ 
       ------------------------------------------------------------------------------…
  • (no intro to this one)
    
    Riff A
    ======
    G:----------------------------|
    D:----------------------------|
    A:-5---4-----4-----2-0---2-0--|
    E:---5---7-5---7-3-----3------|
    
    Riff B
    ======
    G:-----------------------------------|
    D:-----------------------------------|
    A:-5---4-----4-----2-0----12-10----0-|
    E:---5---7-5---7-3-----12-------12---|
    
    Riff…
  • ------------------------------------------------------------------------------
    ------------------------------------------------------------------------------
    --------7-7---5-5---5-5---5p3-------------------------------------------------
    --5-5---7-7---5-5---5-3-------5-----------------------------------------------
    --5-5---5-5---3-3---3---------------------------------------------------------
    --3-3-------------------------------------------------------------------------…
  • Notation:
    () ---- tied note
    
    
        W     H. E  E   E E E Q  E E E   E E E Q  E E E   E E E Q  E E E   E E E Q  E E E   E E E Q  E E E
    G|-----|----------|----------------|----------------|----------------|----------------|----------------|
    D|--R--|--R--R----|-----0----------|-----0----------|-----0----------|-----0----------|-----0----------|
    A|-----|----------|---2---0--2-0---|---2---0--2-0---|---2---0--2-0---|---2---0--2-0---|---2---0--2-0---|
    E|-----|--------2-|-3------------2-|-3------------2-|-3------------2-|-3------------2-|-3------------2-|…
  • ------------------------------------------------------------------------------ 
       ------------------------------------------------------------------------------ 
       -----1212-11-11-9999-7/9-----5-----7------------------------------------------…
Наверх