Аккорды «Matchbox Twenty»

Matchbox Twenty
Matchbox Twenty (Первоначальное название Matchbox 20 - надпись со спичечного коробка c двадцатью спичками.) - это рок-группа, созданная в Орландо, штат Флорида, и продавшая более 39 миллионов альбомов по всему миру. Сейчас в состав группы входят Роб Томас ( Rob Thomas , вокал, клавиши), Пол Доусет(Paul Doucette, ударные), Кайл Кук (Kyle Cook, гитара, вокал) и Брайан Йэил (Brian Yale, басс-гитара). Адам Гайнор (Adam Gaynor, ритм-гитара), который в данный момент покинул группу, тем не менее участвовал… Читать полностью... Matchbox Twenty (Первоначальное название Matchbox 20 - надпись со спичечного коробка c двадцатью спичками.) - это рок-группа, созданная в Орландо, штат Флорида, и продавшая более 39 миллионов альбомов по всему миру. Сейчас в состав группы входят Роб Томас ( Rob Thomas , вокал, клавиши), Пол Доусет(Paul Doucette, ударные), Кайл Кук (Kyle Cook, гитара, вокал) и Брайан Йэил (Brian Yale, басс-гитара). Адам Гайнор (Adam Gaynor, ритм-гитара), который в данный момент покинул группу, тем не менее участвовал в записи всех трех ее альбомов. Роб Томас - автор большинства песен и основной вокалист. Томас, Йэил и Доусет выступали в группе Tabitha's Secret из Орландо до того как создали Matchbox Twenty вместе с Куком и Гайнором. Matchbox Twenty выпустила свой первый альбом "Yourself or Someone Like You" в 1996 году. Хотя их первый сингл "Long Day" не был успешным, в течение 1997 и 1998 годов в эфире появилось несколько произведений с того же альбома, которые вошли в Top 40, в том числе "Push", "3 A.M.", "Real World" и " Back 2 Good ". В итоге только в США альбом был продан более чем 12-миллионым тиражом, приобретя статус бриллиантового. В течение нескольких лет музыканты неустанно гастролировали, исполняя на концертах произведения со своего единственного альбома, а также кавер-версии своих любимых песен таких, как "Time After Time" Синди Лаупера или битловской "Don't Let Me Down". Колличество их поклонников росло от концерта к концерту, благодаря зажигательным живым представлениям, а также длительной ротации их хитов на радио. В том же году Matchbox Twenty записали живую версию своего Top-40 хита "3 A.M." для благотворительного альбома "Live Lounge X", прибыль от которого пошла на исследования церебрального паралича. До записи своего второго альбома Роб Томас вместе с Италом Шуром работал над песней "Smooth" для альбома Карлоса Сантаны "Supernatural". Песня придавала популярное звучание латиноамериканским мотивам, и продемонстрировала поэтический талант Томаса. Томас должен был быть только автором песни, но после прослушивания демо записи Карлос Сантана решил, что Роб должен спеть ее. "Smooth" стала лучшим синглом альбома и популярнейшим хитом в 1999 году; Томас получил три Грэмми за написание и исполнение "Smooth", в том числе Запись Года и Лучшая Песня Года. В 2000 году Matchbox 20 переименовались в Matchbox Twenty и выпустили свой второй альбом - "Mad Season". Альбом отличался сочной иструментальной аранжировкой и содержал несколько хитов, включая "Bent" (номер один в Топ 100) и "If You're Gone". Клип на песню "Bent"- пародия на видео к "Smooth", где остальные участники группы безжалостно издеваются над Томасом. Ностальгическая баллада "If You're Gone" стала очень популярной, особенно среди 30-35 летних. Следующие два сингла группы, "Mad Season" и "Last Beautiful Girl", были не особенно успешными. В своем третьем альбоме, "More Than You Think You Are", музыканты вернулись к более тяжелому роковому звучанию. В альбоме можно выделить синглы "Disease", "Unwell", и "Bright Lights". В мае 2004 года группа выпустила DVD "Show: A Night in the Life of Matchbox Twenty" с записью концерта в Атланте и содержащий 20 песен, в том числе все их хиты. В феврале 2005 года, гитарист Гайнор официально покинул группу, которая давно не собиралась, т.к. участники были заняты сторонними проектами. Роб Томас записал сольный альбом под названием "...Something To Be", который занял первую строку U.S. Billboard 200 в первую же неделю после выхода. Альбом выделялся четырмя синглами : "Lonely No More", "This is How a Heart Breaks", "Ever the Same" и "Streetcorner Symphony". В январе 2007 г. Роб Томас выпустил сингл "Little Wonders", который он написал для диснеевского фильма "В гости к Робинсонам". 20 апреля 2007 г. Нью-Йоркский журнал "Daily Intelligencer" в статье о документальном фильме Роба Томаса "My Secret Record" написал, что Matchbox Twenty приступит к работе над своим следующим альбомом 23 апреля 2007 года. Скрыть...
Популярные аккорды Matchbox Twenty:
алфавиту | просмотрам | случайно
  • G|---------------------------------------
    D|---------------------------------------
    A|---------------------------------------
    E|-5--5-5-5------------2--2-2-2--0--0-0-0  repeat 2x
    B|--------------3------------------------
    
    G|-------------------------------------------
    D|-------------------------------------------
    A|-------------------------------------------
    E|------0------5------2--------------0------2
    B|-3--------------------------3--------------
    
    G|---------------------------------------------------
    D|---------------------------------------------------
    A|---------------------------------------------------
    E|------0------5------2-----------------0-0--0--0---0
    B|-3--------------------------3--3-3-----------------
    
    
    G|---------------------
    D|---------------------
    A|-4----5--------------
    E|-------------5------0…
  • Drop D tuning (D,A,D,G)
    
    Intro:
     rest 1 bar then:
    
                     repeat 6x
    G:|----------------------|---------------------|-------------|
    D:|---------------------*|---------------------|-------------|
    A:|---------------------*|---------------------|------r-r-r--|
    D:|-4444-4444-4444-4444--|-4444-4444-4444-0-2--|-4-4---------|
    
    Verse:…
  • CAPO ON 1st FRET!! All tabs are relative to the capo!
    Listen to song for timing!
    
    Chords: G Cadd2 D
            3   3   2
            3   3   3
            0   0   2
            0   2   0
            2   3   x
            3   x   x
    
    Intro:…
  • Intro: Clean Tone
    
    Strum:  ///       ///        ///     ///	2X
    E-----------------------------------------------
    B-----------------------------------------------
    G-------11-------------------8------------------
    D---11--11--------11------8--8-------9----------
    A---9----------11-11------6--------9-9----------
    E--------------9-------------------7------------
    
    
    Verses:…
  • Tuning:eBGDAE
    
    I'm not sure if it's accurate but try it out
    Just as the first chorus ends play:
    e|-------7-5-----------------------------------------------------------------|
    B|---5h7-----7-5-3-5/7~------------------------------------------------------|
    G|---------------------------------------------------------------------------|
    D|---------------------------------------------------------------------------|
    A|---------------------------------------------------------------------------|
    E|---------------------------------------------------------------------------|
    After…
  • Chords:
         G*      G*      C*    CaddG     Em*     Em      D
    E:|--3--   --3--   --3--   -----   --3--   -----   --2--
    B:|--3--   -----   --3--   --1--   --3--   -----   --3--
    G:|-----   -----   -----   -----   -----…
  • Bass Tab
    
    tune the Bass to :
    D#( a very low D#),G#,C#,F#
    The song goes :
    Verse, Fast Verse, Slow Verse, Chorus, Verse, Chorus, Verse, Chorus, End
    Verse :
    -----------------------------------------------------
    -----------------------------------------------------
    ------------0-------------3-------------------------
    ------3------------1------------3-------1------3-
    -----------------------------------------------------
    -----------------------------------------------------
    ------------0--------------3-----------------------
    ----3-------------1--------------------------------
    Chorus…
  • Intro:
    G    D    Em   C
    G    D    Em   C
    
    Verses:
    Em                  C
         Kody sat down on the avenue
    Em                     C
         He tapped his feet to the humming of the highway
    Em                               C…
  • She got outta town           on a railway new york
    E|-0---------------------------------------------------||
    B|-0------------------4--------------------------------||
    G|-1------------------4------2-------------------------||
    D|-x------------------4------4-------------------------||
    A|-x------------------2---4--4-------------------------||
    E|-0-------------------------2-------------------------||…
  • Tuning: standard tuning
    
    Intro & Verse - listen to the track for the timing.
    
    e|--x-x-x-x---x-x-x--x--x--x--x-x-x-x-x------x-------------------------------|
    B|--x-x-x-x---x-x-x--x--x--x--x-x-x-x-x------x-------------------------------|
    G|--x-x-x-x---6-6-6--8--9--x--9-8-6-6-6--9~--x---9-8-6---64-----------------|
    D|--x-x-x-x---x-x-x--x--x--x--x-x-x-x-x--9~--x---------9-----6---6/7--6/7----|
    A|--x-x-x-x---7-7-7--7--7--x--7-7-7-7-7--7~--x-------------------8/9--8/9----|
    E|--x-x-x-x---5-5-5--5--5--x--5-5-5-5-5------x-------------------------------|
    
    Hang…
  • Tuning: Standard
    
    Verse 1
    
    Guitar 1(dist.)
            she wanted something just like the real thing
    e|---------------------------------------------------|
    B|---------------------------------------------------|
    G|-------2-------------------------------------------|
    D|-------2--------------------2----------------------|
    A|-------0--------------------2----------------------|
    E|----------------------------0----------------------|…
  • Intro Em, G, D, Em
    
    Verse
    Em                        G
     just 3 miles, from the rest stop
    D                     Em
        And she slams on the breaks
    Em                          G   
    She said I tried to be but I’m not
    D…
  • KEY: B MAJOR (B C# D# E F# G# A#)
    
    TUNING: STANDARD
    (E-A-D-G-B-E)
    
    CAPO II
    TONE IN ()
    
    CHORDS (RELATIVE TO CAPO)
    E-|C|--0-----0-----0-----2--
    B-|A|--2-----3-----0-----2--
    G-|P|--2-----2-----1-----2--
    D-|O|--2-----0-----2-----4--
    A-|…
  • Both guitars play at the same time on all parts.
    Guitar  #1  -  Capo on 1
    Guitar  #2  -  Capo on 3
    
    Intro (repeat four times)
    (Guitar #1)    (Guitar #2)
    e---------------------------  --0-----2-----------------
    b---------------------------…
  • Standard tuning, no capo... E-A-D-G-B-e
    
    CHORDS:
    G:320033
    D:xx0232
    C:x32010
    Em:022000
    
    Intro: Em-G-D-C (2x)
    
    
    VERSE 1:
    
    		Em			       D
    Well it?s for sure, things came down hard
    
    			G
    But you couldn?t wait, yeah
    
    C				Em
    All…
  • G                             Bm  
    I don't know why sometimes we seem so apart 
                         C  
    Sown together with a broken heart 
                              D  
    I try to see you but it's getting dark…
  • Tuning: standard(EADGBe)
    
    No capo
    
    CHORDS:
          D    C   C+9   G    A   Bm
    e|----2----0----0----3----0----2------|
    B|----3----1----3----3----2----3------|
    G|----2----0----0----0----2----4------|
    D|----0----2----2----0----2----4------|
    A|----x----3----3----2----0---(2)-----|
    E|----x----x----x----3----x----x------|…
  • --------------2-2--------------3------3----2----0---0-0---0-0-0-0-------------
    --------------3-3--------------3------3----3----3---0-0---0-0-0-0-------------
    --------------2-2--------------0------0----0----0---0-0---0-0-0-0----::-------
    -0-0-0-0-0-0--0-0--------------2--------------------0-0---0-0-0-0-------------
    -------------------0-0-0-0-0-0-3--------------------2-2---2-2-2-2-------------
    ----------------------------------0-0----0----0-----------3-3-3-3-------------…
  • Standard Tuning..
    
    Intro
    A D
    A E D
    A D
    A E D
    
    Lead Guitar: Play 4 times
    e-----5----7--5-----
    b--5----5--------5--
    g-------------------
    d-------------------
    a-------------------
    e-------------------
    
    Verse 1:
    A…
  • Tuning: Standard Tuning
    
    Chords
    ------
    
       Em    D    Am     C     G
    e|-0-----2-----0-----0-----3-----|
    B|-0-----3-----1-----1-----3-----|
    G|-0-----2-----2-----0-----0-----|
    D|-2-----0-----2-----2-----0-----|
    A|-2-----------0-----3-----2-----|
    E|-0-----------------0-----3-----|
    
    
    Verse…
  • Tuning: Standard tuning with a capo on the 1st fret.
    
    
    Intro:   C, F  a few times (listen to the track for the timing. 
    
    
    Verse 1:
    
    C
    Someday they'll find our small town world, 
    
    On a big town avenue, 
    
    F
    Gonna make you…
  • intro
    
    e-------0----------------0------0---|
    b---------0----------------0----0---|
    g--1(2)-------------1(2)--------1---|
    d-------------------------------2---|
    a------------0------------------2---|
    e--2----------------2-----------0---|…
  • EADGBe
    
    CHORDS:
    G:3x0033
    D:xx0232
    Em:022000
    C:x32010
    Csus:x30010
    Am:x02210 
    
    Intro Riff:
    
    e--3--0-------------
    B-------3--0--------
    G-------------2--0-- 
    
    INTRO: Riff with G (palm muted) in background
    
    VERSE 1:
    
    G----->
    Well…
  • Tuning: standard tuning with a capo on the first fret.
    
    Intro- It's not perfect but it'll do.
           play G chord through the intro (If you're playing with two guitars)
    
    e|------------------------------|
    B|------0--------0--------------|
    G|--0h2----2--0-----0-----------|
    D|---------------------0--------|
    A|------------------------------|
    E|------------------------------|
    
    G…
  • INTRO 
    
    e|-----------------------------------| 
    B|---3--3---3--3---3--3---3---3--3---| 
    G|---2--2---4--4---2--2---2h4-4--4---| 
    D|---0--0---0--0---0--0---0---0--0---| 
    A|-----------------------------------| 
    E|-----------------------------------|…
  • Csus2   Dsus4   Em7	Bm7       G       C
    XCEGDG  XXDADG  EBDGDE  XBDADF#   GBDGDG  XCEGCG
    	
    Intro:
    C  D  Bm7  Csus2   C  Dsus4 D  Em  Em7
    C  Dsus4 D  Bm7    C 
    Csus2  Dsus4 D  G 2x
    
    Csus2 G   Csus2 G             Csus2  G…
  • Tuning: Standard(EADGBe)
    
    No Capo
    
    CHORDS:
          C    E   Am    G    F   F5   Eb5
    e|----0----0----0----3----1----x----x----|
    B|----1----0----1----3----1----x----x----|
    G|----0----1----2----0----2---10----8----|
    D|----2----2----2----0----3---10----8----|
    A|----3----2----0----2----3----9----6----|
    E|----x----0----x----3----1----x----x----|
    
    
    INTRO:
    (on…
  • Intro
    E--------------------------
    A--------------------------
    G--------------------------
    D--------2--4--------------
    B-----4--------------------
    E--2-----------------------
    
    
           Verse 1
    E--------------------------
    A--------------------------
    G--------------------------
    D-----------2--4-----------
    B-----4--4-----------------
    E--2-----------------------…
  • Introduction:
    
    e-------------------------------------
    b-------------------------------------
    g-------------------------------------
    d----5-7-5-7-7-5-7-5-7-5---5-7--------
    a------------------------7------------
    e-------------------------------------
    
    e------------------------------------
    b------------------------------------
    g--------------------------5b-5b-----
    d----5-7-5-7-7-5-7-5---5-7-----------
    a--------------------7---------------
    e------------------------------------
    
    
    (Kyle's…
  • The chords used are: G(320003), G*(320033), C(x32010), C9(x32033), D(xxx232)
                         Em(022030)
    
    Intro: G,C,G,C,G,D,G
    
    Verse 1:
    (Strum each chord once)
     
    G                   C     G           C     G…
  • Bb          F             C      Dm
    No i would not sleep in this bed of lies
    Bb          F        C   Dm
    So toss me out and turn in
                  Bb     F               C    Dm
    And there'll be no rest for these tired eyes…
Наверх