Аккорды «Matteo Carcassi»

Matteo Carcassi
Маттео Каркасси (итал. Matteo Carcassi; 1792, Флоренция — 16 января 1853, Париж) — итальянский классический гитарист и композитор. С раннего детства учился играть на фортепиано, затем на гитаре, и к двадцати годам уже заслужил репутацию хорошего исполнителя. В 1820 году поселился в Париже, где занимался концертной и педагогической деятельностью. Его исполнение, отмеченное блестящей виртуозностью и элегантностью, пользовалось большой популярностью среди французской публики. Каркасси часто исполнял… Читать полностью... Маттео Каркасси (итал. Matteo Carcassi; 1792, Флоренция — 16 января 1853, Париж) — итальянский классический гитарист и композитор. С раннего детства учился играть на фортепиано, затем на гитаре, и к двадцати годам уже заслужил репутацию хорошего исполнителя. В 1820 году поселился в Париже, где занимался концертной и педагогической деятельностью. Его исполнение, отмеченное блестящей виртуозностью и элегантностью, пользовалось большой популярностью среди французской публики. Каркасси часто исполнял собственные сочинения, в основном это были фантазии и вариации на темы опер Обера, Герольда и Россини. Гитарист успешно концертировал в Лондоне, а также в различных городах Германии. Каркасси — один из представителей (наряду с Фердинандо Карулли и Мауро Джулиани) классической итальянской гитарной школы. Многочисленные его сочинения (сонаты, рондо, каприччио, вальсы и др.) входят в репертуар современных исполнителей. Большое значение имеют его учебно-педагогические работы, в том числе этюды (ор. 26 и ор. 60) и трёхчастная «Школа игры на гитаре» (фр. Méthode complète pour la guitare), выпущенная в печать в Париже в 1836 году и ставшая одним из наиболее популярных пособий при обучении на этом инструменте. Более сотни сочинений композитора остаются неизданными. Скрыть...
Популярные аккорды Matteo Carcassi:
алфавиту | просмотрам | случайно
  • E----||----0----0----0---0-|-------0-0-0-0-0-|
    B----||----------------0---|-----1-----------|
    G----||-2----1----2--------|---2-------------|
    D--2-||--------------------|-----------------|
    A----||--------------------|-0---------------|
    E----||--------------------|-----------------|
    
    
    E---------0-0-0-0-0-|---------0-0---|
    B-------0-----------|-------1-------|
    G-----1-------------|----2----------|
    D-------------------|-------------2-|
    A-------------------|-0-------------|
    E--0----------------|---------------|
    
    E-----0----0----0---0-|-----------0-0-0-0-0-|
    B-----------------0---|--------1------------|
    G--2----1----2--------|-----2---------------|
    D---------------------|---------------------|
    A---------------------|--0------------------|
    E---------------------|---------------------|
    
    E-------------------|--------0-0--||
    B---------0-0-0-0-0-|------0------||
    G------2------------|----1--------||
    D----1--------------|-------------||…
  • 1 |   .   |   .   |   .     |   .   |   .   |   .
    E|-------3-----------------|-------3-----------------|
    B|-3-------0-------1-------|/3-------0-------1-------|
    G|-4-------0-------2-------|/4-------0-------2-------|
    D|-------------------------|-------------------------|
    A|-------------------------|-------------------------|
    E|-------------------------|-------------------------|…
  • E|--------------------------------------1------0-------------------|
    B|----------------------------------------------------3-----0-------|
    G|--2-2-2---2-2-2---2-2-2-----2-2-2--2-2----2-2---1--1--2--2--------|
    D|-----------------3--------2--------0------------------------------|
    A|0-------3--------------------------------3------2-----0-----------|
    E|------------------------------------------------------------------|
    
    |-------------------------------------------------------0------|
    |---0-----0-----0------0------1--------1-------0---------------|
    |--2-2--2--2--2--2---2--2---2--2----2---2---2---2---1---1------|
    |0----1-----2------3-------2---------------2-------------------|
    |--------------------------------------------------------------|
    |---------------------------------0----------------0-----------|
    
    |------------------------------------1-------0---------------------|
    |----------------------------------------------------3-------0-----|
    |--2-2-2--2-2-2--2-2-2---2-2-2---2---2---2---2---1---1---2--2------|
    |---------------3-------2-------0----------------------------------|
    |0------3-------------------------------3-------2--------0---------|
    |------------------------------------------------------------------|
    
    
    |-----------------------------0-------0-1-0----0-5-----|
    |-----0-----0-----1-------0---------1-------4----------|
    |---2--2--2--2--2--2---1----------2--------------------|
    |0------1-----2----------------------------------------|…
  • |-------0-------0--|-------0-------0--|-------1-------1--|-------1-------1--|
    |-----1-------1----|-----1-------1----|-----3-------3----|-----0-------0----|
    |---0-------0------|---2-------2------|---2-------2------|---0-------0------|
    |---------2--------|------------------|-0-------3--------|------------------|
    |-3----------------|-0-------3--------|------------------|---------2--------|
    |------------------|------------------|------------------|-3----------------|
    
    |-------0-------3--|-------1-------1--|-------0-------1--|--0---------------|
    |-----1-------2----|-----3-------3----|-----1-------0----|--1---------------|
    |---0-------2------|---2-------2------|---0-------0------|--0---------------|
    |------------------|-0-------3--------|------------------|------------------|
    |-3-------0--------|------------------|------------------|--3---------------|
    |------------------|------------------|-3-------3--------|------------------|…
Наверх