Аккорды «Mayhem»

Mayhem
Группа Mayhem была основана в Осло в 1983 г. гитаристом Эйстейном Орсетом (сначала назвался Дестрактор, но потом узнал, что так называют печи для сжигания мусора и назвался Евронимусом в честь греческого Принца Смерти). Он позвал бас-гитариста Йорна Стубберуда (псевдоним Necrobutcher) и ударника Кьетила Манхейма (псевдоним как и фамилия). Сначала вокалистом был Евронимус, ненадолго на эту роль взяли сессионного вокалиста Эрика Нордхейма (Messiah), а с 1985 г. постоянным вокалистом стал Свен Эрик… Читать полностью... Группа Mayhem была основана в Осло в 1983 г. гитаристом Эйстейном Орсетом (сначала назвался Дестрактор, но потом узнал, что так называют печи для сжигания мусора и назвался Евронимусом в честь греческого Принца Смерти). Он позвал бас-гитариста Йорна Стубберуда (псевдоним Necrobutcher) и ударника Кьетила Манхейма (псевдоним как и фамилия). Сначала вокалистом был Евронимус, ненадолго на эту роль взяли сессионного вокалиста Эрика Нордхейма (Messiah), а с 1985 г. постоянным вокалистом стал Свен Эрик Кристиансен (Maniac). В этом составе Mayhem записали демо Pure Fucking Armageddon и мини-альбом Deathcrush (тираж был 1000 копий). Пластинки вышли в 1986 г. и 1987 г. Скопировано с Dark-World.ru. соответственно на лейбле Euronumous’а, которой назывался Posercorpse Music (позже переименован в Deathlike Silence Productions). Mayhem начинали как типичная блэк-метал-группа, основной темой которой были смерть и насилие. Но скоро в тексты добавились мотивы скандинавского язычества и сатанизма, к которому тяготел Евронимус. В 1987 г. из группы ушли Манхейм (по словам Евронимуса: "женился на какой-то глухой девочке и наплодил много маленьких Манхеймов") и Maniac (последнего поместили в психиатрическую больницу после попытки самоубийства, он пытался разбиться на машине). В следующем году их заменили соответственно Хеллхаммер (Ян Аксель Бломберг, барабанщик), который был намного лучше предыдущего и швед Пер Ингве Олин (Дэд). Дэд стал одним из символов группы и блэк-метала вообще, а скорое самоубийство окончательно сделало его культовой фигурой. Он был настолько одержим смертью, что одевался в лохмотья, зарытые на несколько недель в землю и красил себе лицо, чтобы походить на мертвеца (корпспэйнт), и наносил себе раны ножом и др. предметами во время концертов. Кроме того, он обладал уникальным голосом, больше похожим на рёв. Один из концертов, сыгранный в этом составе в Лейпциге, впоследствии был издан как официальный концертный альбом Live in Leipzig. В этом же составе группа начала работать над записью первого студийного альбома De Mysteriis Dom Sathanas. После разговора с друзьями о суициде Дэд покончил с собой 8 апреля 1991 г. Сначала он попытался перерезать себе вены, но нож оказался тупым, тогда Дэд взял ружье и выстрелил себе в голову (патроны, при помощи которых он совершил самоубийство, были подарком Варга Викернеса). Когда Евронимус вернулся домой (они с Дэдом жили вместе), он обнаружил Дэда. В шоке, Евронимус побежал за одноразовым фотоаппаратом и сделал несколько фотографий. Одна из них позднее была помещена на обложку бутлега Dawn of the Black Hearts. По слухам, Евронимус также съел частички мозга (обратите внимание-ПО СЛУХАМ) и сделал ожерелья себе и Хеллхаммеру из кусочков черепа. В 1993 г. вышел концертный альбом Live in Leipzig. В том же (1991) году группу покинул бас-гитарист Necrobutcher, которого заменил Варг Викернес, игравший в Mayhem под псевдонимом Count Grishnackh. Он был несколько лет знаком с Евронимусом и издал некоторые записи своего проекта Burzum на его лейбле. Вместе с сессионным вокалистом Аттилой Чихаром (лидером венгерской группы Tormentor, одним из пионеров блэк-метала) Mayhem возобновили работу над De Mysteriis Dom Sathanas. 10 августа 1993 года Варг Викернес и его друг Снорре Рух (создатель проекта Thorns и одновременно второй гитарист Mayhem) приехали из Бергена в Осло к Евронимусу, где после ссоры Викернес нанёс Евронимусу удары ножом, который он всегда носил с собой, смертельный удар пришелся в голову. О том, что могло привести к убийству, спорят до сих пор, в частности, в качестве причин называют конфликт Варга и Евронимуса по поводу доходов от продажи дисков Burzum и борьбу за лидерство в сатанинской организации The Inner Black Circle of Norway, которую возглавлял Евронимус и в которую входили Викернес и ряд других музыкантов. Сам Викернес позднее писал, что Евронимус планировал его убийство и что Викернес фактически прибегнул к самообороне, а большинство из ран на теле Евронимуса образовались от падения на осколки стекла при скатывании с лестницы, а не были нанесены Викернесом (интересно, да? он что, их потом вытащил?). Через два дня он был арестован, и группа de facto прекратила существование. События, последовавшие за убийством Евронимуса, бурно освещались в норвежской прессе. В результате этого блэк-метал перестал быть уделом немногочисленных сатанистов и язычников и приобрёл относительную известность в среде поклонников экстремальной музыки. Альбом De Mysteriis Dom Sathanas вышел в 1994 г. Задержка была вызвана тем, что родители Евронимуса не хотели видеть на альбоме имя Варга Викернеса и настаивали на том, чтобы Hellhammer переписал партии бас-гитары. Поскольку он не умел играть на басу, на альбоме остались партии, записанные Викернесом, но в буклете в качестве музыкантов значились только Хеллхаммер и Евронимус. В следующем году группа была вновь сформирована Хеллхаммером. Помимо Хеллхаммера в неё вошли ранее выступавшие в Mayhem басист Necrobutcher и вокалист Maniac, а также новый гитарист Руне Эриксон (Blasphemer) из группы Aura Noir. Их первой совместной записью стал мини-альбом Wolf's Lair Abyss, который разительно отличался от предыдущих работ как гораздо более техничной игрой, так и чистым вокалом Maniac’а. На следующем альбоме — Grand Declaration of War — группа продолжила движение в сторону авангардного метала. Отход от звучания начала 90-х разделил поклонников группы на два лагеря. Одни превозносили Mayhem времён Дэда и Евронимуса как группу, создавшую лучшие образцы блэк-метала, и критиковали новый состав за измену прошлому, в то время как другие приняли новых Mayhem. В 2004 г. вышел альбом Chimera, который был заметно тяжелее предыдущих работ, но сохранил элементы авангарда. В том же году Maniac был вынужден покинуть группу, и ему на замену пригласили Аттилу Чихара. Последний на данный момент альбом — Ordo Ad Chao — вышел 16 апреля 2007 г. Материал этого альбома вновь разительно отличается от прежнего творчества хаотичной структурой композиций, но главное — нарочито низким качеством звука. Он стартовал в норвежском чарте на рекордном для Mayhem 12-м месте. В 2008 году группу покинул Blasphemer. В это время Mayhem выступали с двумя концертными гитаристами, Morfeus и Silmaeth. Однако, в феврале 2011 года Teloch заменил Silmaeth'a. Группа продолжает свою гастрольную деятельность Скрыть...
Популярные аккорды Mayhem:
алфавиту | просмотрам | случайно
  • ~                          
    |-10h12-12--12p10----10h12-12b13--12p10---------------------------------|
    |-----------------12--------------------12-12h13--13-12-10--------------|
    |----------------------------------------------------------12-11-9-8-9--|
    |-----------------------------------------------------------------------|
    |-----------------------------------------------------------------------|
    |-----------------------------------------------------------------------|
    ~
    Solo…
  • Riff A
    |------------------------------|
    |------------------------------|
    |------------------------------|
    |----------4-3------------3-3--|
    |-2-2-5--2-2-1---2-2-5--2-1-1--|
    |-0-0-3--0-------0-0-3--0------|
    
    
    
    Riff B
    |---------------------------------------------|
    |---------------------------------------------|
    |---------------------------------------------|
    |---------------------------------------------|
    |-777788887777888877778888/12-12-12-1210-10-10|
    |-555566665555666655556666/10-10-10-10-8-8-8-8|
    
    The…
  • Tune to C
    
    Begining Bass Riff w/Distortion
    ----------------------------------------------
    ----------------------------------------------
    ----------------------------------------------
    -0-3-2-----0-3-2-------0-3-2-------0-3-2------
    
    Riff…
  • Tuning: D flat
    
    
    Riff A
    |----------------------------------|
    |----------------------------------|
    |----------------------------------|
    |----------------------------------|
    |-2-2-2-2-2-2-2-2-2-2-2-2-5-4-5-4--|
    |-0-0-0-0-0-0-0-0-0-0-0-0-3-2-3-2--|
    
    Riff…
  • Tuning: C
    
    
    Riff A
    |-----------------------|
    |-----------------------|
    |-----------------------|
    |-----------------------|
    |----------5-4-5--------|
    |-00000000-3-2-3--------|
    
    Riff B
    |-----------------------|
    |-----------------------|
    |-----------------------|
    |-----------------------|
    |----------2-3-2-3------|
    |-11111111--------------|
    
    Riff…
  • /   = Slide
      R   = Let Ring
     [x]  = Play note x times
      #   = Pick Scrape
     (x)  = Not necessary to play note
    
    -
    
    RIFF 1 - [00:00-00:26] - Play 12x
    
    |-----------------------|
    |-----------------------|
    |--------4--------------|
    |------3-----4---3------|
    |----3-----2---1-----4--|
    |-1-1--------------2----|
    
    -
    
    RIFF…
  • Tune to D
    
    Key:
    
    /= slide up
    =slide down
    *=Unspecified fret
    PM ..= Palm Mute
    !=Play note short
    }X#= play this # times
    Tem..= Tremelo picking
    
    Drums & cymbals and xxxx with this
    Riff 1 (Intro)
    D------------------------------------------------
    A------------------------------------------------
    E------------------------------------------------
    B------------------------------------------------
    G--3-3--------3-3---------3-3--------3-3---------
    D--1-1--------1-1---------1-1--------1-1---------
    
    Riff…
  • RIFF 1 (Guitar 1)
    |-------------------------------------------------------| Play 4 Times
    |-------------------------------------------------------|
    |-------------------------------------------------------|
    |-77777777-66666666-77777777-88888888-------------------|
    |-77777777-66666666-77777777-88888888-------------------|
    |-55555555-44444444-55555555-66666666-------------------|
    
    (Guitar…
  • Tuning: C
    
    
    Riff A
    |-------------------------------|
    |-------------------------------|
    |-------------------------------|
    |--222222222222222222222--------|
    |--222222222222222222222--------|
    |--000000000000000000000--------|
    
    Note:…
  • Tune whole guitar one step down(D).
    
    Intro Riff A:
    
    2 X
    
    I-----------------------------------------------------------------I
    I-----------------------------------------------------------------I
    I-----------------------------------------------------------------I
    I---------------8-----7--------------------------------7-----7----I
    I-5---------9---6-----5---8--------------5---------8---5-----4----I
    I-3---------7-------------6--------------3---------6--------------I
    
    Intro…
  • *...this note is a ten/eleven, not a one and a zero/two ones
    
    
    	  RIFF1
     	||----------||
     	||----------||
     	||----------||
     	||-7--7--8--||
     	||-7--------||
     	||-5--------||
    
    	  RIFF2
     	||----------||
     	||----------||
     	||----------||…
  • Intro
    -----------------------------------------
    -----------------------------------------
    -5------------------5--------------------
    -5------8---------9-5--------------------
    -3------6---------7-3-------44444433-----
    -0------------------0--------------------
    
    -----------------------------------------
    -----------------------------------------
    -5------------------55-5-55-5------------
    -5------88-88-88-99-55-5-55-5------------
    -3------66-66-66-77-33-3-33-3-66664444---
    -0------------------00-0-00-0------------…
  • Tuning: C
    
    ^=bend
    ~=hold note out
    
    
    Begins w/feedback
    
    Riff A (this is the same for both bass and guitar)
    |-------------------------------|
    |-------------------------------|
    |-------------------------------|
    |-----3~------3~------2~-----2~-|
    |-------------------------------|
    |-1~------1~------0~-----0~-----|
    
    Riff…
Наверх