Аккорды Mercyful Fate - Desecration Of Souls

Добавлено: @romashka
Дата добавления: 18 Июня 2016г.
Рейтинг:
0.0
Просмотров: 30
Транспонировать - +
/ = Slide up the fretboard
r = let note ring

Repeat that 3 times

g----------------|----------------|
d----------------|----------------|
a-12/------------|-----7----6r----|
e--------------0-|-8-7------------|

g----------------|----------------|
d----------------|----------------|
a-------3------5-|-------2--------|
e-3-2-0--3-2-0---|-3-2-0-----2--0-|

g----------------|----------------|
d----------------|----------------|
a-12/------------|-----7----6r----|
e--------------0-|-8-7------------|

As soon as I figure out more i iwll post it
comments powered by Disqus
Наверх