Аккорды Mercyful Fate - The Oath

Добавлено: @romashka
Дата добавления: 18 Июня 2016г.
Рейтинг:
0.0
Просмотров: 18
Транспонировать - +
e)|---/Full-----------------------------------------------------------|
B)|-15-(17)-r---13--12-13-12----12---------/Full----------------------|
G)|--------------------------14----14-12-14-(16)-r---12--14~-----------| Lead Gtr.
D)|--------------------------------------------------------------------|
A)|--------------------------------------------------------------------|
E)|--------------------------------------------------------------------|


e)|------------------------------------/Full--/Full--/Full------------|
B)|-------------10--12--13p12p10~----15(17)-15(17)-15(17)--r(15)~~-----|
G)|-9---11--12---------------------------------------------------------| Lead Gtr.
D)|--------------------------------------------------------------------|
A)|--------------------------------------------------------------------|
E)|--------------------------------------------------------------------|


e)|-----------------------------------------10~------------------------|
B)|--------------10----10-12-10-12-13-12-13-----13~--12h13~-10~~-------|
G)|-11--12-11-12----12-------------------------------------------------| Lead Gtr.
D)|--------------------------------------------------------------------|
A)|--------------------------------------------------------------------|
E)|--------------------------------------------------------------------|

      / Full  
e)|-17--(19)---r--15---14---15---17---15~----14h15p14~~----------------|
B)|--------------------------------------------------------------------|
G)|--------------------------------------------------------------------| Lead Gtr.
D)|--------------------------------------------------------------------|
A)|--------------------------------------------------------------------|
E)|--------------------------------------------------------------------|


e)|-0--12p10p0-14p12p0-17p12p0-15p12p0-14p12p0-15p12p0-14p12p0---------|
B)|--------------------------------------------------------------------|
G)|--------------------------------------------------------------------| Lead Gtr.
D)|--------------------------------------------------------------------|
A)|--------------------------------------------------------------------|
E)|--------------------------------------------------------------------|


e)|-------------------------------------/Full---------sl---------------|
B)|----------12~------------12~----15----(17)~~----17-/-19~~-----------|
G)|----------12~------------12~---------*------------------------------| Lead Gtr.
D)|-14-14-14-------14-14-14--------------------------------------------|
A)|--------------------------------------------------------------------|
E)|--------------------------------------------------------------------|
*  --> First hit the note and a little later bend it.


e)|-15-12-14-10-12-8-10-7-8-5-7--5h7h8~-7~--5h7-2h3p2h3p2h3p2h3--------|
B)|--------------------------------------------------------------------|
G)|--------------------------------------------------------------------| Lead Gtr.
D)|--------------------------------------------------------------------|
A)|--------------------------------------------------------------------|
E)|--------------------------------------------------------------------|
                                                                       |
e)|--------------------------------------------------------------------|
B)|--------------------------------------------------------------------|
G)|-16-12-14-11-12-9-11-7-9-5-7--5h7h9~-7~--5h7-2h4p2h4p2h4p2h4--------| Harmony Gtr.
D)|--------------------------------------------------------------------|
A)|--------------------------------------------------------------------|
E)|--------------------------------------------------------------------|


e)|-3---2---3---5---7---8---7---5h7p5h7---2---3---2--------------------|
B)|---------------------------------------------------5--5------------|
G)|--------------------------------------------------------------------| Lead Gtr.
D)|--------------------------------------------------------------------|
A)|--------------------------------------------------------------------|
E)|--------------------------------------------------------------------|
                                                                       |
e)|--------------------------------------------------------------------|
B)|---------------------------------------------------5--5------------|
G)|-4---2---4---5---7---9---7---5h7p5h7---2---4---2--------------------| Harmony Gtr.
D)|--------------------------------------------------------------------|
A)|--------------------------------------------------------------------|
E)|--------------------------------------------------------------------|
comments powered by Disqus
Наверх