Аккорды «Nachtmystium»

Nachtmystium
Nachtmystium - это американская психоделическая экстрим-метал группа, основанная Блэйком Джадом (Blake Judd) и Пэтом Маккормиком (Pat McCormick). Название группы образуется из немецкого слова "nacht", что обозначает "ночь", и латинского термина "mystium". Джад и Маккормик соединили эти два слова, создав тем самым название для своей группы, что переводится как "Окружение темноты". На музыкантов сильно повлияли такие блэк-метал группы, как Darkthrone и Burzum,… Читать полностью... Nachtmystium - это американская психоделическая экстрим-метал группа, основанная Блэйком Джадом (Blake Judd) и Пэтом Маккормиком (Pat McCormick). Название группы образуется из немецкого слова "nacht", что обозначает "ночь", и латинского термина "mystium". Джад и Маккормик соединили эти два слова, создав тем самым название для своей группы, что переводится как "Окружение темноты". На музыкантов сильно повлияли такие блэк-метал группы, как Darkthrone и Burzum, доказательством этого служит их первый релиз "Reign of the Malicious" 2002 года. Группа отыграла свое первое Скандинавское шоу в Бергене (Норвегия) в 2008 году на Hole in the Sky Festival вместе с At the Gates, Municipal Waste, Meshuggah. Nachtmystium путешествовали вместе с Opeth, Baroness, High on Fire в первой половине своего Американского турне. В сентябре 2008 года группа подтвердила, что планирует выпустить повторную версию "Demise" с двумя новыми треками. Так же Nachtmystium объявил, что планирует выпустить новую предполагаемую версию "Doomsday Derelicts" раньше 2009 года. Скрыть...
Популярные аккорды Nachtmystium:
алфавиту | просмотрам | случайно
  • Tuning: D Tuning
    
    Intro
    
    d|-------------------------------------------------|
    A|-6-6---6-6---6-6---6-6---6-6---6-6---8-8---8-8---|
    F|-7-7---7-7---7-7---7-7---7-7---7-7---7-7---7-7---|
    C|-7-7---7-7---7-7---7-7---8-8---8-8---7-7---7-7---|
    G|-5-5---5-5---5-5---5-5---5-5---5-5---5-5---5-5---|
    D|-------------------------------------------------|
    
    d|-------------------------------------------------|
    A|-6-6---------6-6---------6-6---------6-6---------|
    F|-7-7---7-7---7-7---7-7---7-7---7-7---7-7---7-7---|
    C|-7-7---7-7---7-7---7-7---7-7---7-7---7-7---7-7---|
    G|-------5-5---------5-5---------5-5---------5-5---|
    D|-------------------------------------------------|
    
    (not…
  • Tuning: DGCFAD (D Standard)
    
    Let all ring
    d|-------------------------|-------------------------|
    A|-0-----1-----0-----------|-------0-----1-----3-1-0-|
    F|---0-----0-----0---2-----|---0-----0-----0---------|
    C|-----2-----2-----2---2-0-|-----2-----2-----2-------|
    G|-------------------------|-3-----------------------|
    D|-------------------------|-------------------------|…
  • Tuning: Drop D
    
    Intro AND Verse! ~~\READ NOTE/~~
    e|-----------------------------------------------------------------------------|
    B|-13-13---------13-13---------15-15--------15-15------------------------------|
    G|---------14-14---------14-14---------14-14--------14-14----------------------|
    D|-----------------------------------------------------------------------------|
    A|-----------------------------------------------------------------------------|
    D|-----------------------------------------------------------------------------|
    
    
    e|-----------------------------------------------------------------------------|
    B|---------10-10--------10-10---------10-10--------10-10-----------------------|
    G|-12-12--------12-12---------10-10--------10-10-------------------------------|
    D|-----------------------------------------------------------------------------|
    A|-----------------------------------------------------------------------------|
    D|-----------------------------------------------------------------------------|
    
    e|-----------------------------------------------------------------------------|
    B|------10-10----10-10---------------------------------------------------------|
    G|-9-9--------9-9--------------------------------------------------------------|
    D|-----------------------------------------------------------------------------|
    A|-----------------------------------------------------------------------------|
    D|-----------------------------------------------------------------------------|
    
    Chorus
    e|-----------------------------------------------------------------------------|
    B|-----------------------------------------------------------------------------|
    G|-----------------------------------------------------------------------------|
    D|-----------------------------------------------------------------------------|
    A|-0~---5~--3~-----------------------------------------------------------------|
    D|-0~---5~--3~-----------------------------------------------------------------|…
Наверх