Аккорды «Nasty Savage»

Nasty Savage
В начале 80-х гитарист Бен Мейер и басист Фред Дрегишан играли во флоридской банде под названием "Nightmare". Когда в 1983 году к ним присоединился вокалист и бывший рестлер Ронни Галлетти, команда поменяла вывеску на "Nasty savage", а сам Ронни взял себе кличку "Nasty". Чуть позже в группе появился еще один гитарист, Дэвид Остин (экс-"Gangster"), ставший одним из основных авторов песен. Последним к коллективу присоединился ударник Кертис Бисон, завербованный из другой флоридской банды, "Razor".… Читать полностью... В начале 80-х гитарист Бен Мейер и басист Фред Дрегишан играли во флоридской банде под названием "Nightmare". Когда в 1983 году к ним присоединился вокалист и бывший рестлер Ронни Галлетти, команда поменяла вывеску на "Nasty savage", а сам Ронни взял себе кличку "Nasty". Чуть позже в группе появился еще один гитарист, Дэвид Остин (экс-"Gangster"), ставший одним из основных авторов песен. Последним к коллективу присоединился ударник Кертис Бисон, завербованный из другой флоридской банды, "Razor". С самого начала "Nasty savage" взялись исполнять жесткую агрессивную и в то же время экстравагантную музыку с сюрреалистическими текстами. Основной фишкой стало сочетание скорости исполнения и ритмических сбивок. В начале 1984-го парни записали первое демо, "Wage Of Mayhem", состоявшее из четырех треков. Сначала на него никто особого внимания не обратил, но на следующий год две композиции оттуда попали на сборники "Iron Tyrants" и "Metal Massacre 6". В том же 1985-м с продюсером Джимом Моррисом был записан одноименный дебютный альбом "Nasty savage". Пластинка вышла на "Metal Blade Records", а затем была переиздана "Combat Records". Диск привлек к себе внимание публики благодаря мощным тяжелым композициям таким как "Gladiator", "Fear Beyond The Vision", "Metal Knights" и "Dungeon Of Pleasure". У группы появилось множество фанов, как на родине, так и в Европе, а особенно в Германии. Немалую роль в этом сыграли сногсшибательные шоу "Nasty savage" с различными рестлерскими трюками, кровью, разбиванием на сцене телевизоров и другими фишками. В 1986-м Фреда, повредившего себе руку, сменил Дезо Иштван Барца. Дезо принял участие в сессиях второго альбома, "Indulgence", и даже сочинил для этой пластинки пару песен. Диск этот получился сильнее своего предшественника, что, конечно же, отразилось и на продажах. Последовавшие гастроли прошли с большим успехом. Насти Ронни доводил публику до экстаза, разбивая башкой аппаратуру и другие предметы, типа все тех же телевизоров. Однако и помимо сцены он устраивал различные экстравагантные выходки и скандалы, тем самым подогревая интерес к "Nasty savage". В 1988-м снова на "Metal blade" вышел мини-альбом, "Abstract Reality", саунд группы на котором еще более ужесточился. В роли басиста на этом релизе выступал уже Крис Мурхаус. Однако этот товарищ тоже долго не задержался в команде, и вскоре был заменен Ричардом Бэйтманом. С ним был записан последний альбом группы, "Penetration Point". После выхода пластинки команду покинул барабанщик Кертис Бисон, спустя некоторое время его примеру последовал Дэвид Остин, и "Nasty savage" прекратили свое существование. Музыканты разбрелись по разным проектам. Однако время от времени происходили кратковременные реюнионы группы. Такое происходило, например в 1993-м и 1998-м. Последний раз "Nasty savage" собрались в августе 2002-го в том же составе, в котором был записан "Penetration Point". С инженером Марком Пратером музыканты поработали над двумя новыми треками, "Sardonic Mosaic" и "Wage of Mayhem". Эти композиции попали на CD, изданный в начале 2003 года на "Crook'D Records", куда также вошли композиции с демо и ранее неизданные вещи. Скрыть...
Популярные аккорды Nasty Savage:
алфавиту | просмотрам | случайно
  • Intro riff (guitar one)
    -------------------------------------------------------------------
    --2h3-3s5-5s3----2h3-3p2-2----2h3-3p0-0h2----2h3-3p2-2-------------
    -------------------------------------------------------------------
    -------------------------------------------------------------------
    
    Ending…
  • Tuning: Standard
    
    Notation Key
    v: vibrato
    t: tremolo bar
    ^: bend
    .: palm mute
    ~: trill
    p: pull-off
    h: hammer-on
    x: ghost note
    /: slide up
    : slide down
    
    
    Intro x4
    e|---------------|
    B|---------------|
    G|---------------|
    D|---------------|
    A|--------7---8--|
    E|--0-000---6----|
    
    Riff…
  • Tuning: Standard
    
    Notation Key
    v: vibrato
    t: tremolo bar
    ^: bend
    .: palm mute
    ~: trill
    p: pull-off
    h: hammer-on
    x: ghost note
    /: slide up
    : slide down
    
    
    Fig. 1 x4
    e|-----------------------------------|-----------------------------------|
    B|-----------------------------------|-----------------------------------|
    G|-----------------------------------|-----------------------------------|
    D|--------------------------4/5-4/5--|-----------------------------------|
    A|--------------------------2/3-2/3--|--------------------------3/4-3/4--|
    E|--000-000-000-000-000-000----------|--000-000-000-000-000-000-1/2-1/2--|
    
    Fig.…
  • Tuning: Standard
    
    Notation Key
    v: vibrato
    t: tremolo bar
    ^: bend
    .: palm mute
    ~: trill
    p: pull-off
    h: hammer-on
    x: ghost note
    /: slide up
    : slide down
    
    
    Intro x1
    e|-------------|
    B|-------------|
    G|-------------|
    D|--7-5--------|
    A|--5-3---5-3--|
    E|--------3-1--|
    
    Fig.…
  • Tuning: Standard
    
    Notation Key
    v: vibrato
    t: tremolo bar
    ^: bend
    .: palm mute
    ~: trill
    p: pull-off
    h: hammer-on
    x: ghost note
    /: slide up
    : slide down
    
    Intro
    Gtr. 1
    e|---------|---------|---------|---------------------------------
    B|---------|---------|---------|---------------------------------
    G|----1-2--|---------|----1-2--|---------------------------------
    D|---------|----3-2--|---------|-----3---------------------------
    A|---------|---------|---------|-----1--5------------------------
    E|--0------|--0------|--0------|--0-----3------------------------
    
    Gtr.…
  • Tuning: Standard
    
    Notation Key
    v: vibrato
    t: tremolo bar
    ^: bend
    .: palm mute
    ~: trill
    p: pull-off
    h: hammer-on
    x: ghost note
    /: slide up
    : slide down
    
    
    Intro x1
    e|---------------|
    B|---------------|
    G|---------------|
    D|---------------|
    A|----1-0-3-3-3--|
    E|--0-----1-1-1--|
    
    Fig.…
  • Tuning: Standard
    
    Notation Key
    v: vibrato
    t: tremolo bar
    ^: bend
    .: palm mute
    ~: trill
    p: pull-off
    h: hammer-on
    x: ghost note
    /: slide up
    : slide down
    
    Fig. 1 x1
    e|------------------------------------------------------|
    B|------------------------------------------------------|
    G|------------------------------------------------------|
    D|----3-------------3-------------3-------------3-------|
    A|--2-1-----------2-1-----------2-1-----------2-1-------|
    E|--0------3-2-1--0------3-2-1--0------3-2-1--0----3-1--|
    
    Fig.…
  • Tuning: Standard
    
    Notation Key
    v: vibrato
    t: tremolo bar
    ^: bend
    .: palm mute
    ~: trill
    p: pull-off
    h: hammer-on
    x: ghost note
    /: slide up
    : slide down
    
    
    Fig. 1 x4
    e|-----------------|-------------|-----------------|-------------|
    B|-----------------|-------------|-----------------|-------------|
    G|-----------------|-------------|-----------------|-------------|
    D|-----------------|--------4----|-----------------|--------2-3--|
    A|--3-------3-4-2--|------6-2-6--|--3-------3-4-2--|-------------|
    E|--1-1-1-1--------|--0-0-4---4--|--1-1-1-1--------|--0-0-4------|…
  • Tuning: Standard
    
    Notation Key
    v: vibrato
    t: tremolo bar
    ^: bend
    .: palm mute
    ~: trill
    p: pull-off
    h: hammer-on
    x: ghost note
    /: slide up
    : slide down
    
    
    Riff 1 x2
    e|---------------------------------------|--------------------------------------|
    B|---------------------------------------|--------------------------------------|
    G|---------------------------------------|--------------------------------------|
    D|----------------------------------3-5--|-----------------------------------5--|
    A|-----7-----5v-------7------5v-----1-3--|-----7-----5v-------7------5v----3-3--|
    E|--0-----0-------0------0-------0-------|--0-----0-------0------0-------0-1----|
    
    Riff…
  • Tuning: Standard
    
    Notation Key
    v: vibrato
    t: tremolo bar
    ^: bend
    .: palm mute
    ~: trill
    p: pull-off
    h: hammer-on
    x: ghost note
    /: slide up
    : slide down
    
    
    Fig. 1 (intro)
       Gtr. 1
    e|---------------------------------------------------------------
    B|---------------------------------------------------------------
    G|---------------------------------------------------------------
    D|---------------------------------------------------------------
    A|--2-------2-----2-------3---2-------2-----2-------1h2p1--------
    E|--0-0-1-3-0---3-0-0-1-3-1---0-0-1-3-0---3-0-0-1-3--------------…
Наверх