Аккорды «New Found Glory»

New Found Glory
New Found Glory – американская поп-панк группа из Южной Флориды. Коллектив образовался в 1997 году. На данный момент они выпустили 2 мини-альбома, 6 полноформатных альбомов, 2 кавер-альбома, сборник лучших хитов. Они известны своим быстрым и энергичным стилем поп-панка и заслужили уважение поклонников своими живыми выступлениями. Дебютный EP и Nothing Gold Can Stay (1997—1999) Группа собралась под названием "A New Found Glory" в середине 1997 г. в городе Корал Спрингз, штат Флорида. Джордан… Читать полностью... New Found Glory – американская поп-панк группа из Южной Флориды. Коллектив образовался в 1997 году. На данный момент они выпустили 2 мини-альбома, 6 полноформатных альбомов, 2 кавер-альбома, сборник лучших хитов. Они известны своим быстрым и энергичным стилем поп-панка и заслужили уважение поклонников своими живыми выступлениями. Дебютный EP и Nothing Gold Can Stay (1997—1999) Группа собралась под названием "A New Found Glory" в середине 1997 г. в городе Корал Спрингз, штат Флорида. Джордан Пандик и Стив Кляйн начали вместе писать музыку. Затем к ним присоединился басист Иан Грашка и ударник Джо Морено. Последним в состав вошёл Чед Гилберт, бывший вокалист группы Shai Hulud. Поначалу квинтет играл в гараже у Грашки. Первым релизом стал EP 1997 года It’s All About the Girls, на лейбле Fiddler Records. Вскоре после записи этого мини-альбома Морено ушёл из группы, и его место занял нынешний ударник Кир Болуки. С тех пор состав группы не менялся. Спустя немного времени на коллектив обратил внимание лейбл Eulogy Records. На нём и был выпущен первый полноформатный альбом группы, Nothing Gold Can Stay. Это произошло осенью 1999 года. Выход альбома и последующий тур обеспечили группе поддержку любителей поп-панка. После релиза название группы сменили на "New Found Glory", чтобы предотвратить путаницу в музыкальных магазинах. Кавер-EP, одноимённый альбом и Sticks and Stones (2002—2003) Независимый лейбл Drive-Thru Records обратил внимание на растущее количество поклонников группы и предложил подписать контракт. В 2000 году квинтет выпустил альбом каверов на песни из фильмов под названием From the Screen to Your Stereo. Отношения лейблов Drive-Thru и MCA Records позволили выпустить следующий, одноимённый альбом New Found Glory на более крупном лейбле MCA в том же году. Третий студийный альбом, Sticks and Stones, издан в 2002 г. Это сопровождалось появлением на Vans Warped Tour. Оба альбома стали "золотыми" по версии RIAA. Catalyst (2003—2005) После периода отдыха и небольших выступлений на Honda Civic Tour с Good Charlotte и Simple Plan, New Found Glory выпустили альбом Catalyst в мае 2004 г. Он достиг третьего места в Billboard 200 с продажами 146 000 копий в первую неделю. Более тяжёлый стиль звучания, в котором чувствуется влияние металла и нью-вейва стал ответом на сравнение группы с некоторыми популярными коллективами в журналах и других СМИ. Вот что сказал Чед Гилберт: "Ну, когда вышел Sticks and Stones, и мы участвовали в Honda Civic Tour, нас сравнивали с такими группами, как Good Charlotte и Simple Plan, что нам очень не понравилось. Да, нас сравнивали с более популярными коллективами, но мы не поп-группа…". Песня «This Disaster» звучит в видеоигре Madden 2005. «At Least I’m Known for Something» можно услышать в Burnout 3: Takedown. Catalyst стал третьим “золотым” альбомом New Found Glory. Coming Home и кавер-альбом (2005—2007) После релиза Catalyst и тура в его поддержку группа взяла небольшой перерыв для подготовки к записи следующего альбома. 14 июня 2006 г. Гилберт рассказал MTV.com, что следующий альбом будет называться "Coming Home", и выпуск его запланирован на 19 сентября 2006 г. Также он сказал, что первый сингл, «It’s Not Your Fault», будет издан где-то в июле 2006. Альбом стал популярным, много критиков дали альбому позитивные оценки. Coming Home был включён в список "Essential Albums of 2006" (Самые значимые альбомы 2006 года) издания Alternative Press. Но тем не менее, синглов с этого альбома больше не было, а группа покинула Geffen Records. Впоследствии они будут критиковать этот лейбл. Затем New Found Glory подписали контракт с Epitaph Records. Басист Иан Грашка сказал: "Наша цель для следующего альбома – продать больше копий, чем было продано Coming Home. Мы счастливы, что сейчас мы с Epitaph. Наш менеджер от Geffen был просто бездушным инструментом в руках лейбла, поэтому большие продажи нового диска будут подобны ‘Fuck You’, адресованному ему". From the Screen to Your Stereo, Part II, ставший продолжением мини-альбома From the Screen to Your Stereo, был издан 18 сентября 2007 г. на лейбле Drive-Thru Records. Это уже полноформатный альбом, состоящий из 11 песен, плюс один бонус-трек для японского издания и версии от iTunes. Единственный сингл с этого альбома – «Kiss Me». Hits, Tip of the Iceberg EP, Not Without a Fight (2008—наши дни) 18 марта 2008 г. вышла компиляция лучших песен группы, названная "Hits". На ней присутствуют две ранее неизданные песни: «Situations» и «Constant Static». Этот альбом стал последним релизом на Drive-Thru/Geffen Records. В апреле 2008 г. была издана компиляция из серии Punk Goes… под названием Punk Goes Crunk, на которой присутствовала композиция New Found Glory – кавер на песню Tennessee группы Arrested Development. До этого группа записала другой кавер – «Heaven», для сборника Punk Goes Metal. 29 апреля 2008 г. группа издала EP на лейбле Bridge 9 Records. На нём есть как новый материал, так и кавер-версии песен классических хардкор-панк групп. EP, названный Tip of the Iceberg, был издан на CD, 7’’ виниле и в электронном виде. CD содержит дополнительный диск от [artits]The International Superheroes of Hardcore, под именем Takin’ It Ova! The ISHC – это сайд-проект всех участников группы, в котором Гилберт – вокалист, а Пандик играет на гитаре. Остальные участники играют на тех же инструментах, что и в New Found Glory. Все участники используют сценические псевдонимы в The ISHC (к примеру, Гилберт – "Капитан Straight edge"). Также был снят видеоклип специально для интернета на песню «Dig My Own Grave» с режиссёром Джозефом Пэттиселлом. Шестой студийный альбом, Not Without a Fight, был издан 10 марта 2009 г. Продюсером выступил Марк Хоппус. Альбом выпустили на лейбле Epitaph Records. Хоппус заявил, что возлагает на этот альбом большие надежды и ему понравилось работать с NFG. Первым синглом с альбома стал «Listen to Your Friends». Видеоклип на него был снят в Лос-Анджелесе. Сингл издан 22 декабря в Великобритании и на день позже в США. Затем группа записала и выпустила совместный EP с Shai Hulud. Он называется Not Without a Heart Once Nourished by Sticks and Stones Within Blood Ill-Tempered Misanthropy Pure Gold Can Stay, и продавался только во время тура Not Without a Fight. Было сделано всего 400 копий, все – только для продажи на выступлениях Shai Hulud и NFG. Музыкальный стиль и влияния Группа играет типичный поп-панк, а в последних релизах часто смешивает его с элементами хардкора. Наиболее ярко это выражает мини-альбом Tip of the Iceberg. На альбоме Coming Home у группы более классический стиль рока с не очень быстрыми мелодиями. Ритм-гитарист Стив Кляйн является основным автором стихов, в то время как Чед Гилберт обычно сочиняет музыку. Кляйн говорил, что на каждом альбоме участники пытаются записать что-то новое, не похожее на предыдущие релизы. Большое влияние, по словам участников NFG, на них оказали хардкор группы Hatebreed и Madball, а также поп-панк группа Green Day. Группе Madball посвящена композиция The ISHC – «Madball’s Got Our Back», а в клипе "Listen to Your Friends" Пандик носит футболку с логотипом Madball. Состав: Джордан Пундик (Jordan Pundik) — вокал Чэд Гилберт (Chad Gilbert) — гитара, вокал Стив Клейн (Steve Klein) — гитара Сайрус Болуки (Cyrus Bolooki) — барабаны Йэн Грушка (Ian Grushka) — бас Дискография: Студийные записи: Nothing Gold Can Stay (1999) New Found Glory (2000) Sticks and Stones (2002) Catalyst (2004) Coming Home (2006) Not Without A Fight (2009) Radiosurgery (2011) Мини-альбомы: It's All About the Girls (1997) Tip of the Iceberg (2008) Кавер-альбомы: From the Screen to Your Stereo (2000) From the Screen to Your Stereo, Part II (2007) DVDs The Story So Far (2002) This Disaster: Live in London (2004) Скрыть...
Популярные аккорды New Found Glory:
алфавиту | просмотрам | случайно
  • Standard Tuning
    
    intro
    random feedback (C)
    
    verse (slightly dist.)
    gtr. 1
    e---------------------------------------------
    B---------------------------------------------
    G---------------------------------------------
    D--5-5-5--------------------------------------
    A--3-3-3-3------------------------------------
    E--------1------------------------------------
    gtr.…
  • Intro 
    Guitar 1 
    e|----------------------------------
    b|---------------------------------- 
    g|--7-7---7-7--7--------------------
    d|--7-7---7-7--7----5-5---5-5--5----
    a|--5-5---5-5--5----5-5---5-5--5----
    E|------------------3-3---3-3--3----…
  • ~ = let ring
    
    Intro:
    |-222-22222--------------------------------------------|
    |-333-33333--------------------------------------------|
    |-222-00000--------------------------------------------|
    |------------------------------------------------------|
    |------------------------------------------------------|
    |------------------------------------------------------|
    
    Verse:
    |------------------------------------------------------|
    |------------------------------------------------------|
    |------------------------------------------------------|
    |-777-55555--------------------------------------------|
    |-777-55555--------------------------------------------|
    |-555-33333--------------------------------------------|
    
    Chorus:
    |----------------------|---------------------------------|
    |----------------------|---------------------------------|
    |--------77-----77777--|-5555555555555555----------------|
    |-555555-77-777-77777--|-5555555555555555----------------|
    |-555555-55-777-55555--|-3333333333333333----------------|
    |-333333----555--------|---------------------------------|…
  • INTRO: 2X (0:00- 0:11)
    
    E  ---------------------------------------------------
    B  ---------------------------------------------------
    G  ---------------------------------------------------
    D  5-5-5-5-5-5-4-5-5-5-5-5-5-5-7-7-7-5-5-5-9-9-9-7-7-7
    A…
  • Standard Tuning
    
    Intro:
    e|---------------------------------------------------------------------------|
    B|---------------------------------------------------------------------------|
    G|---------------------------------------------------------------------------|
    D|-2-2-2-2-2-2------X4-----2-------------------------------------------------|
    A|-2-2-2-2-2-2-------------2---let-ring--------------------------------------|
    E|-0-0-0-0-0-0-------------0-------------------------------------------------|
    PM…
  • Intro
    ---------------------------------|
    ---------------------------------|
    55555555-4/555555-5/77-55-99-777-|
    55555555-4/555555-5/77-55-99-777-|
    33333333-2/333333-3/55-33-77-555-|
    ---------------------------------|
    
    Verse…
  • Intro
    e---1-----1-----1------2--4--2--1------------------------------4---------|
    B------2-----2-----2---------------------4-----4-----4-------4-----4----1|
    G-------------------------------------------5-----5----5-----------------|
    D---------------------------------------------------------------------|
    A---------------------------------------------------------------------|
    E---------------------------------------------------------------------|
    
    e---------------------------2---------1----------------------------------|
    B---2-----2-----2------2--------2--------------4----4--------------------|
    G-----3-----3-----3---------------------------------5--------------------|
    D---------------------------------------------------------------------|
    A---------------------------------------------------------------------|
    E---------------------------------------------------------------------|
    
    Verses
    e|----------------------------------------------------------------------|
    B|----------------------------------------------------------------------|
    G|-----------------6-----------------6------------------6------------|
    D|-----------------6-----------------6--8---------------6-------------|
    A|-----------------4-----------------3--8---------------4-------------|
    E|--------------------------------------6---------------4-------------|
    
    e|----------------------------------------------------------------------|
    B|----------------------------------------------------------------------|
    G|-----------------6-----------------6---------------------------------|
    D|-----------------6-----------------6--8---------------6-------------|
    A|-----------------4-----------------3--8---------------6-------------|
    E|--------------------------------------6---------------4-------------|…
  • Bass intro: ( for u bass players_
    |----------------------------------------------------|
    |-----4-5------4-5-------4-5----5-4------------------|
    |----------0-0-----3-3-3------0----------------------|
    |-3-3------------------------------------------------|
    
    riff…
  • Intro (x2) : Rhythm Guitar 
    e |-------------------------------| 
    B |-------------------------------| 
    G |-6-6-xx-6-6-xx-----------------| 
    D |-6-6-xx-6-6-xx--4-4-xx-4-4-xx--| 
    A |-4-4-xx-4-4-xx--4-4-xx-4-4-xx--| 
    E |----------------2-2-xx-2-2-xx--|…
  • riff 1  repeat 2x
    -------------------------------------
    -------------------------------------
    -------------------------------------
    -------------------------------------
    -11-11--9h11--11-11-11--9h11-9h11----
    --9-9---9-9---9--9--9---9-9--9-9-----
    
    riff…
  • Tuning:EADGBe
    
         Repeat
    e|------------------|-------------------|-----------------------------------|
    B|------------------|-------------------|-----------------------------------|
    G|-5-2-5--5-2-5-7-3-|-------------------|-5-2-5---5--5----------------------|
    D|-3-3-5--3-3-5-7-3-|-5-7-5-3-5-7-5-7-3-|-3-3-5---3--3----------------------|
    A|------------------|-------------------|-----------------------------------|
    E|------------------|-------------------|-----------------------------------|…
  • Intro: Guitar 1
    e|---------------------------------------------------------------------------|
    B|---------------------------------------------------------------------------|
    G|-7~------6~------7~--------------------------------------------------------|
    D|------------------------7~-------------------------------------------------|
    A|---------------------------------------------------------------------------|
    E|---------------------------------------------------------------------------|
    
    Guitar…
  • Intro:
    e|-----------------------------------------------------------------|
    B|-----------------------------------------------------------------|
    G|--7777--777777--7777--777777----4444--444444--4444--444444-------|
    D|--7777--777777--7777--777777----4444--444444--4444--444444-------|
    A|--5555--555555--5555--555555----2222--222222--2222--222222-------|
    E|-----------------------------------------------------------------|
    
    e|---------------------------------------------------------|
    B|---------------------------------------------------------|
    G|--9999--7777--9999--7777---------------------------------|
    D|--9999--7777--9999--7777---------------------------------|
    A|--7777--5555--7777--5555---------------------------------|
    E|---------------------------------------------------------|
    
    Verse1:…
  • intro:
    [---------------------------------------------------]
    [---------------------------------------------------]
    [--------------------6-6----------------------------]
    [--2-2--6-7-7-7------6-6-6-7-7-7--------------------]
    [--2-2--6-7-7-7-x3---4-4-6-7-7-7--------------------]
    [--0-0--4-5-5-5----------4-5-5-5--------------------]
    
    verse:
    [---------------------------------------------------]
    [---------------------------------------------------]
    [----------------------------6----------------------]
    [--2-2-----2-2-----2-2-------6-6-7------------------]
    [--2-2-----2-2-----2-2-------4-6-7------------------]
    [--0-0-----0-0-----0-0---------4-5------------------]…
  • Guitar 1 is rythm and
    guitar 2 is lead.  
    *=palm mute
    ~= let ring
    G1= Guitar 1
    G2= Guitar 2
    Intro 1 G1 3x          Intro 1 G2 1x
    |-----------------|    |---------------------------------|
    |-----------------|    |---------------------------------|
    |-999-----666-----|…
  • Here is the first guitar part (lots of overdrive)
    E-----------------------------------|
    B-----------------------------------|
    G--------9-9--9-9----------9-9--9-9-|
    D-7--7-7-9-9--9-9-9-9--9-9-9-9--9-9-|x2
    A-7--7-7-7-7--7-7-9-9--9-9-7-7--7-7-|
    E-5--5-5----------7-7--7-7----------|
    
    
    Here…
  • -----------------------------------------------------
    -----------------------------------------------------
    9999------9999--------------9999---------------------
    777797777977779 9  9  9  9 9777797777----------------
    77777555577777711…
  • -----------------------------------------------|
    -----------------------------------------------|
    -----5-------5-------5-------5-------5-------5-|
    ---5---5---5---5---5---5---5---5---5---5---5---|
    -3-------2-------0-----------------------------|
    -------------------------3-------1-------1-----|
    
    ------------------------------------------|
    ------------------------------------------|
    -55555222------555559991010101010---------|
    ---------55555---------------------(x2)---|
    -33333000------33333777-8-8-8-8-8---------|
    ---------33333----------------------------|
    
    ------------------------------------------|
    ------------------------------------------|
    ------------------------------------------|
    -55555-222-------55555--------------------|
    -33333-000-55555-33333-333-33333----------|
    -----------33333-------000-11111----------|
    
    -----------------------------------------------|
    -----------------------------------------------|
    -----5-------5-------5-------5-------5-------5-|
    ---5---5---5---5---5---5---5---5---5---5---5---|
    -3-------2-------0-----------------------------|
    -------------------------3-------1-------1-----|…
  • Tuning: Dropped D (D A D G B E)
    
    Intro 
    gtr 1 ( i dont think this riff is played on the guitar but here it is anyway)
    E|---------------------------------------------------------------||
    B|---------------------------------------------------------------||
    G|--5--3----3--5--3--5--7--5--3---3--5--3--0--5----7------5--7---||
    D|-----------------------------------------------------3---------||
    A|---------------------------------------------------------------||
    D|---------------------------------------------------------------||
    
    Gtr…
  • x-palm mute
    s-slide
    h-hammer on
    p-pull off
    
    drop d tunning
    
    guitar 1 intro
    e-------------------------------------------------------------------------------
    b-------------------------------------------------------------------------------
    g-------------------------------------------------------------------------------
    d---xx00-77-777s2-00-xx00-------------------------------------------------------
    a---xx00-77-777s2-00-xx00-------------------------------------------------------
    d---xx00-77-777s2-00-xx00-------------------------------------------------------
    
    intro…
  • Intro and Verse (last part may be a little off): 
    G|------------------------------------| 
    D|----------------------------6-----7-| 
    A|-0-7-5-5-99-7777--0-7-5-5-44-4--55--| 
    E|------------------------------------| 
    
    prechorus…
  • Tuning: Standard
    
    STRUMMMING NOT SHOWN
    
    Intro 1rst Guitar       First time    Second time
    e-----------------------|-------------|--------------------------
    B-----------------------|-------------|--------------------------
    G-----------------------|-10----------|--------------------------
    D---10-----10-----7-----|-10----------|--3-----------------------
    A---10-----10-----7-----|--8----------|--3-----------------------
    E----8------7-----5-----|-------------|--1-----------------------
    
    Intro…
  • Listen to the song for the rithms.
    
    x= palm mute
    
    
    Intro:
    |-----------------------|
    |-----------------------|
    |-7--7----4-------------|
    |-7--7----4---5--4----2-|  x2
    |-5--4----2---5--4----2-|  
    |-------------3--2----0-|
    
    
    |------------------|
    |------------------|
    |-----------222222-|
    |-4---5-----222222-|
    |-4---5-----000000-|
    |-2---3------------|…
  • |------------------------------------------------------------------------------------|
    |------------------------------------------------------------------------------------|
    |------------------------------------------------------------------------------------|
    |---11--11-X---9--9X-X-11-11-X-9-9-9--7--7--6-6--7--7--6-6-6-6----
    |----0----0--X---0--0X-X--0--0--X-0-0-0--0-0---0-0---0-0--0-0-0-0------
    |------------------------------------------------------------------------------------|…
  • E]----3---------3--------------------------
    B]------3---------3------------------------
    G]---------------------------0-------------
    D]-2-------2-0------o---------0----0-------
    A]--------------------2-2h3----2--2--------
    E]------------------------------3----------
    
    
    E]----3---------3--------------------------
    B]------3---------3------------------------
    G]---------------------------0-------------
    D]-2-------2-0------o---------0------------
    A]--------------------2-2h3----2-----------
    E]------------------------------3----------…
  • (Standard Tuning)
    
    
    ----------------------------|
    ----------------------------|
    ----------------------------|
    ----------------------------|
    -4h7-4h7--------------------|
    ----------4h7-4h7-----------|
    
    ----------------------------|
    ----------------------------|
    ----------------------------|
    ----------------------------|
    -4h7-4h7p4p0----------------|
    --------------4h7-4h7-------|
    
    repeat…
  • Verses 
    e|-------------------------------| 
    B|-------------------------------|
    G|-------------6-----------------| 
    D|---7----4----6----2------------| 
    A|---7----4----4----2------------|
    E|---5----2---------0------------|
    Chorus
    e|---------------------------------------------------------------------------|…
  • verse                
    e|-------------|
    B|-------------|
    G|----3--4--6--|   x2
    D|-4--3--4--6--|
    A|-4--1--2--4--|
    E|-2-----------|
       
    got a picture of your house
    and your standing by the door.
    it's black and white and faded
    and…
  • (verse) 
    e|--------------------------------------------------------------------| 
    B|--------------------------------------------------------------------| 
    G|--9-9-9-9-9-------------------9-9-9-9-9-----------------------------|…
  • Palm muted
    
    E-|-------------------------------------------
    B-|-------------------------------------------
    G-|--------------------------------1-1-1-1----
    D-|--9-9-9-9-9-9-9-9----6-6-6-6----2-2-2-2----
    A-|--9-9-9-9-9-9-9-9----6-6-6-6----2-2-2-2----
    E-|--7-7-7-7-7-7-7-7----4-4-4-4----0-0-0-0----…
  • Intro
       Guitar 1
    {e|----------------------------------------|
    {B|----------------------------------------|
    {G|----------------------------------------| Repeat
    {D|----4h5----4h5--2p0----0h2----0h2-------|   4X
    {A|-----------------------------------4p0--|
    {E|----------------------------------------|
    {…
  • E-------------------------------------]
    A-------------------------------------]
    D-------------------------------------]repeated a few times
    G----2--6-----2--6-----2--6-----2--6--]
    B-------------------------------------]
    E-0--------2--------4--------2--------]…
  • Tuning: Standard (EADGBE)
    
    Chorus
    E -------------------
    B -------------------
    G -----7777-9999-7777
    D 7777-7777-9999-7777
    A 7777-5555-7777-5555
    E 5555---------------
    
    
    Verse
    E -------------------------
    B -------------------------
    G…
  • Legend:
     
          / - slide up
           - slide down               
          ~ - let ring
    
    Normal tuning (EADBGe)
    
    Intro:
    
    Guitar 1 (Clean)
         
        Gm            D#    A#       Gm           D#    A# 
      2x…
  • Intro / in between verses
    e|-----------------------------------------------------------------|
    B|-----------------------------------------------------------------|
    G|-----------------------------------------------------------------|
    D|--------------------------------7-7--7-7-7--7-9-9--9/11-9--------|
    A|7-7--7-7-7--7-7-7--7-9-9-11-11--5-5--5-5-5--5-7-7--7/9--7--------|
    E|5-5--5-5-5--5-5-5--5-7-7-9--9------------------------------------|
    
    e|-----------------------------------------------------------------|
    B|-----------------------------------------------------------------|
    G|-----------------------------------------------------------------|
    D|--------------------------------7-7--7-7-7--7-9-9^---------------|
    A|7-7--7-7-7--7-7-7--7-9-9-11-11--5-5--5-5-5--5-7-7^---------------|
    E|5-5--5-5-5--5-5-5--5-7-7-9--9------------------------------------|…
  • Tuning: Drop D (D A D G B e)
    
    Intro
    e|----------------------------    ----------------------------|
    B|----------------------------    ----------------------------|
    G|----------------------------    ----------------------------|
    D|--5-5-5-5-5-5-0-0-0-0-0-0---…
  • Intro
    G|-------------------------|-|---------------------------------
    D|-------------------------|-|---------------------------------	x2
    A|-------------------2-3>--|-|---------------------------------
    E|--3>--0>-xx0-3-----------|-|-1>-3>-0>-1>-1>-3>-0>------------
    
    second…
  • Standard Tuning
    
    Intro
    e------------------------------
    B------------------------------
    G-----------------------6-6-6--
    D-8-8--99-9—-99-9--4-4--6-6-6--(4X)
    A-8-8--99-9—-99-9--4-4--4-4-4--
    E-6-6--77-7—-77-7--2-2---------
    PM…
  • Standard Tuning
    *=PM repeatedly & gradualy open
    
    open with a lot of feedback
    
    Intro - Gt 1/Gt 2
    e-Gt1/Gt2-|--Gt1-|--------|
    B---------|------|--------|
    G---66----|------|-6-6-6--|
    D---66----|-6677-|-6-6-6--|
    A---44----|-6677-|-4-4-4--|
    E---------|-4455-|--------|
    |…
  • HEAVY DISTORTION
    
    
     e --------------------------------------------------------
     B ---------------------------12---------------------------
     G --9-11-13-13--11-9-9-11-12----13-11-9-6-4---------------
     D --------------------------------------------------------…
  • Verse:
    G|------------------------|
    D|-7>-5>-4>---------------| 
    A|----------X3------------|
    E|--------------3>-5>-----| 
    
    Prechorus and Chorus:
    G|-------------|
    D|-------------| 
    A|-------------|
    E|-2>-3>-5>----| 
    
    Bridge:…
  • Tuning: Standard (E A D G B E)
    
    PM - Palm mute
    x - Mute string
    / - Slide up
    
    
    Intro
    |------------------------------|
    |------------------------------|
    |-----1-2------2------2------2-| x1
    |-2-4---2--4-2-2--2---2--2-4-2-|
    |-------0------0----2-0------0-|
    |------------------------------|
    
    
    |------------------------|…
  • e|--------------------------------------------|
    B|--------------------------------------------|
    G|-------------4-4-4-------6-6-6-------2-2-2--|
    D|-2-2-2-------4-4-4-------6-6-6-------2-2-2--|
    A|-2-2-2-------2-2-2-------4-4-4-------0-0-0--|
    E|-0-0-0--2-4---------2-4---------2-4---------|
    
    Verse:
    e|---------------------|
    B|---------------------|
    G|-9-----6-6-6--2-2-2--|
    D|-9-----6-6-6--2-2-2--|
    A|-7-----4-4-4--0-0-0--|
    E|---------------------|
    
    Pre…
  • Standard Tuning
    
    *=P.M.
    
    
    e---------------------|x4
    B---------------------|
    G---6/7-2-22-6/4-4/6--|
    D-4-x/x-2-22-x/x-x/x--|
    A-4-4/5-0-00-4/2-2/4--|
    E-2-------------------|
    
    played on low dist with either a flang or slow…
  • Tuning: Standard (E A D G B E)
    
    
    E|-------------------------------------||
    B|-------------------------------------||
    G|--7--7--5--3--3--5-------------------||  x2
    D|--7--7--5--3--3--5-------------------||
    A|--5--5--3--1--1--3-------------------||
    E|-------------------------------------||
    
    E|-------------------------------------||
    B|-------------------------------------||
    G|--------------------3--3--3--5--5--5-||…
  • (~means let ring) 
    
    Intro: 
    
    G:--------------------------------- 
    D:--------------------------------- 
    A:--------------------------------- 
    E:---0-0---5---9-9---7---0-0---5---9---7 
    
    G:------------------------------------------------------------------…
  • e---------------------------------------------------------------
    b---------------------------------------------------------------
    g-------6-6-6-7-7-7-----------------------------------------------
    d-7-7-7-6-6-6-7-7-7-4-4-4-2-2-2-2-2-2-----------------------------
    a-7-7-7-4-4-4-5-5-5-4-4-4-2-2-2-2-2-2-----------------------------
    E-5-5-5-------------2-2-2-0-0-0-0-0-2-----------------------------…
  • * = Palm Mute
    T = Tenth Fret
    
    
    Verse:
    
    |--------------------------------|
    |--------------------------------|
    |5-------------------------------|
    |5---------------5---------------|
    |3---------------5---------------|
    |----------------3---------------|
    
    |--------------------------------|
    |--------------------------------|
    |55--------------55--------------|
    |55------33------55------55555555|
    |33------33------33------55555555|
    |--------11--------------33333333|
    
    |--------------------------------|
    |--------------------------------|
    |55-555-5--------33-333-388-888-8|
    |55-555-533-333-333-333-388-888-8|
    |33-333-333-333-311-111-166-666-6|
    |--------11-111-1----------------|
    
    |--------------------------------|
    |--------------------------------|
    |--------------------------------|
    |66-666-688-888-866-666-688-888-8|
    |66-666-688-888-866-666-688-888-8|
    |44-444-466-666-644-444-466-666-6|
    
    
    
    Chorus:
    
    |--------------------------------|
    |--------------------------------|
    |5-555555--------5-555555--------|
    |5-5555553-3333335-5555555-555555|
    |3-3333333-3333333-3333335-555555|
    |--------1-111111--------3-333333|
    
    |--------------------------------|
    |--------------------------------|
    |5-555555--------7-777777--------|
    |5-5555553-3333337-7777775-555555|
    |3-3333333-3333335-5555555-555555|
    |--------1-111111--------3-333333|
    
    |--------------------------------|
    |--------------------------------|
    |2---2-22277-7-775---5555********|
    |2---2-22277-7-775---555522222222|
    |0---0-00055-5-553---333322222222|
    |------------------------00000000|
    
    |------------------------|
    |------------------------|
    |2-2222227-777777--------|
    |2-2222227-7777775-555555|
    |0-0000005-5555555-555555|
    |----------------3-333333|
    
    |--------------------------------|
    |--------------------------------|
    |55-555-555-555-5--------********|
    |55-555-555-555-533-333-355555555|
    |33-333-333-333-333-333-355555555|
    |----------------11-111-133333333|
    
    
    
    Interlude:
    
    |--------------------------------|
    |--------------------------------|
    |----------------------8---8-88--|
    |3-3--3--6-6--6--8-8---8---8-88--|
    |3-3--3--6-6--6--8-8---6---5-65--|
    |1-1--1--4-4--4--6-6-------------|
    
    |--------------------------------|
    |--------------------------------|
    |--------------------8---T-------|
    |3-3--3--6-6--6--8---8---T---8---|
    |3-3--3--6-6--6--8---6---8---8---|
    |1-1--1--4-4--4--6-----------6---|
    
    |--------------------------------|
    |--------------------------------|
    |--**************--**************|
    |5-555555555555555-55555555555555|
    |5-555555555555555-55555555555555|
    |3-333333333333333-33333333333333|
    
    |--------|
    |--------|
    |5---5--|
    |5---5--|
    |3---3--|
    |--------|
    
    
    
    THE…
  • x-palm mute
    
    
    intro
    e|------------------------------------|
    B|------------------------------------|
    G|----6-666-66------------------------|
    D|----6-666-66---6-6-9----------------|
    A|----4-444-44---6-6-9----------------|
    E|---------------4-4-7----------------|
    
    Solo
    e|--------------------------------|
    B|-9-9---9-9------9-9---7-7-9-----|
    G|-----7-----7--------7-----------|
    D|--------------------------------|
    A|--------------------------------|
    E|--------------------------------|
    
    verse
    e|----------------------------------------------------------------|
    B|----------------------------------------------------------------|
    G|------------------4-4-4-4-4-4-4-4-6-6-6-6-6-6-6-4-4-4-4-4-4-4-4-|
    D|--2-2-2-2-2-2-2-2-4-4-4-4-4-4-4-4-6-6-6-6-6-6-6-4-4-4-4-4-4-4-4-|
    A|--2-2-2-2-2-2-2-2-2-2-2-2-2-2-2-2-4-4-4-4-4-4-4-2-2-2-2-2-2-2-2-|
    E|--0-0-0-0-0-0-0-0-----------------------------------------------|
    
    pre…
  • E---------------------------------------------------
    A-5-4-5-7-5-4-5-4-5-4-5-7-5-4-5-4-0000000-22222222--
    D---------------------------------2222222-44444444--
    G---------------------------------2222222-44444444--
    B---------------------------------------------------
    e---------------------------------------------------
    
    E-555-444-555-444-55-44-00000022222222--------------
    G-xxx-xxx-xxx-xxx-xx-xx-22222244444444-5-4-5-7-5-4-5
    A-777-666-777-666-77-66-22222244444444--------------
    G---------------------------------------------------
    B---------------------------------------------------
    e---------------------------------------------------
    
    E---------------------------------------------------
    A-4-5-5-5-7-5-4-5-4-0-------------------------------
    D-------------------2-------------------------------
    G-------------------2-------------------------------
    B---------------------------------------------------
    e---------------------------------------------------…
  • intro/outro
    g----2-----2----------------------------------------------------------
    d-3-3-3-0-0-0---5-----3-----------------------------------------------
    a------------3-3-3-1-1-0----------------------------------------------
    e---------------------------------------------------------------------
    
    verse
    g---------------------------------------------------------------------
    d-3-3-3-3-------------------------------------------------------------
    a--------0-0-0-0-3-3-3-3-1-1-1-1--------------------------------------
    e…
  • Intro x 6
    e|---------------------------------------------------------------------------|
    B|---------------------------------------------------------------------------|
    G|-5-5-5-5-5-5-5-5/10-10-10-10-10-10-10-10-----------------------------------|
    D|---------------------------------------------------------------------------|
    A|-3-3-3-3-3-3-3-3/-8--8--8--8--8--8--8--8-----------------------------------|
    E|---------------------------------------------------------------------------|
    
    Verse…
  • Drop D Tuning D A D G B e
    
    Intro
    Guitar 1
    e----------------------------------|
    B----------------------------------|
    G-4-4------------------------------|
    D-4-4---4-4---2-2---6-6-x--4-4-----|
    A-2-2---4-4---2-2---6-6-x--4-4-----|
    D-------4-4---2-2---6-6-x--4-4-----|
    
    Intro
    Guitar…
  • Instrument: 6 String Guitar
    
    Tuning: Dropped D (D A D G B E)
    
    Intro Riff
    Gtr 1
    E|----------------||
    B|----------------||
    G|----------------||
    D|-0-0-x-x-2-2----||
    A|-0-0-x-x-2-2----||
    D|-0-0-x-x-2-2----||
    
    Intro Riff
    Gtr…
  • Tuning: standard 
    
    Legend: 
    * - Palm mute
    / - Slide up
     - Slide down
    # - Strum downward
    ... – Sustain
    
    Intro: (clear no distortion)
    e|-------------------------------|
    B|-------------------------------|
    G|-----7777----------------------|
    D|-----7777--7777----------------|
    A|-----5555-—7777--9999--55555---|
    E|----00000--5555--7777--33333---|…
  • Tuning: eBGDAE (Standard)
    
    Intro/Verse
    e|-------------------------------------]-----------------------------------|
    B|-----0--------0--------0--------0----]-----------------------------------|
    G|-2-0---0--2-0---0--2-0---0--2-0---0--]--2…
  • chords:
       G5  A5  B5  D5
    |------------------|
    |------------------|
    |----------4---7---|
    |--5---7---4---7---|
    |--5---7---2---5---|
    |--3---5-----------|
    
    |----------------------------------5h7--7-7--5h7p5--|
    |--3-3-3h5-3--3--3h5-7-7--3h5-7-7-------------------|
    |o--------------------------------------------------|
    |o--------------------------------------------------|
    |---------------------------------------------------|
    |---------------------------------------------------|
    
    |--3--3-3h5p3-2--2-2h3p2-0--0-0h2p0--|-------10--|
    |------------------------------------|----10-----|
    |-----------------------------------o|--7--------|
    |-----------------------------------o|-----------|
    |------------------------------------|-----------|
    |------------------------------------|-----------|…
  • Intro: GUITAR ONE
    
    e|---------------------------------------------------------------------------|
    B|---------------------------------------------------------------------------|
    G|---------------------------------------------------------------------------|
    D|---------------------------------------------------------------------------|
    A|----------------5-5-5-5-5-5-5-5--2-2-2-4-0-0-0----------------------------|
    D|0-0-0-0-0-0-0-0---------------------------------5-5-5-4-2-0----------------|
    
    Intro:…
  • Verse 1
    E|------------------------------------------------------------|
    A|------------------------------------------------------------|
    D|-777777-----------------------------------------------------|
    G|-777777-888888----------------------------------------------|
    B|-555555-888888----------------------------------------------|
    E|--------666666----------------------------------------------|
    
    
    Verse…
  • . = palm mute
    
    ~ = let ring
    
    Intro pt 1
    (guitar one)
    E|----------------------------------------------------|
    B|----------------------------------------------------|
    G|----------------------------------------------------|
    D|--2222-2-2-2222-2-----2222-2-2-2222-2---------------|
    A|--2222-2-2-2222-2-----2222-2-2-2222-2---------------|
    E|--0000-0-0-0000-0-----0000-0-0-0000-0---------------|…
  • Tuning:Standard
    INTRO
    Guitar 1
    
    e|-----------------------------------------------------------------------------|
    B|-----------------------------------------------------------------------------|
    G|--7-6------------------------------------------------------------------------|
    D|--7-7------------------------------------------------------------------------|
    A|--5-5------------------------------------------------------------------------|
    E|-----------------------------------------------------------------------------|
    (alternate…
  • Tuning: standard
    
    Intro:
    
    e|-----------------------------|
    B|------------7*-----(syths)---|
    G|7-----4--2----7*-------------|
    D|7--5--4--2------7*-----------|
    A|5--5--2--0-------------------|
    E|---3-------------------------|
    
    Verse:
    
    e|-----------------------|
    B|-----------------------|…
  • Tuning: Drop D
    
    Intro:
    e|----------5----4-----2--------5----4----2--------------------------------|
    B|----------5----5-----5--------5----5----5--------------------------------|
    G|--------------------------------------------------Play…
Наверх