Аккорды «Niccolò Paganini»

Niccolò Paganini
Никколо Паганини (итал. Niccolò Paganini; 27 октября 1782 — 27 мая 1840) — итальянский скрипач-виртуоз, композитор. Одна из наиболее ярких личностей музыкальной истории XVIII—XIX веков. Признанный гений мирового музыкального искусства. Уже с шести лет Паганини играл на скрипке, а в девять лет выступил с концертом в Генуе, который имел огромный успех. Мальчиком же он написал несколько произведений для скрипки, которые были так трудны, что, кроме него самого, никто не мог их исполнить. В начале 1797… Читать полностью... Никколо Паганини (итал. Niccolò Paganini; 27 октября 1782 — 27 мая 1840) — итальянский скрипач-виртуоз, композитор. Одна из наиболее ярких личностей музыкальной истории XVIII—XIX веков. Признанный гений мирового музыкального искусства. Уже с шести лет Паганини играл на скрипке, а в девять лет выступил с концертом в Генуе, который имел огромный успех. Мальчиком же он написал несколько произведений для скрипки, которые были так трудны, что, кроме него самого, никто не мог их исполнить. В начале 1797 г. Паганини со своим отцом предпринял первое концертное путешествие по Ломбардии. Известность его как выдающегося скрипача росла необычайно. Вскоре избавившись от строгой ферулы отца, он, предоставленный себе, вёл жизнь бурную, что отразилось как на его здоровье, так и на репутации. Впрочем, необычайный талант этого скрипача возбуждал всюду завистников, которые не пренебрегали никакими средствами, чтобы каким бы то ни было путём повредить успеху Паганини. Его слава ещё более возросла после путешествия по Германии, Франции и Англии. В Германии он даже получил титул барона. В Вене ни один артист не пользовался такой популярностью, как Паганини. Хотя размер гонорара в начале XIX столетия далеко уступал нынешним, но тем не менее Паганини оставил после себя несколько миллионов франков. Последние пять месяцев Паганини не мог выходить из помещения, у него опухли ноги, и он оказался настолько истощен, что не мог взять в руку смычок, скрипка лежала рядом, и он перебирал ее струны пальцами. Никколо Паганини скончался в Ницце 25 мая 1840 года. Имя Паганини было окружено какой-то таинственностью, чему содействовал и он сам, говоря о каких-то необычайных секретах своей игры, которые он обнародует только по окончании своей карьеры. При жизни Паганини было напечатано очень мало его сочинений, потому что автор боялся, что путём печати многие из его виртуозных тайн могли бы быть обнаружены. Таинственность Паганини возбуждала такое суеверие, что епископ Ниццы, где скончался Паганини, отказал в заупокойной мессе и только вмешательство папы изменило это решение. Непревзойденный успех Паганини лежал не в глубоком музыкальном даровании этого артиста, а в необычайной технике, в безукоризненный чистоте, с которой он исполнял труднейшие пассажи, и в новых горизонтах скрипичной техники, открытых им. Работая усердно над произведениями Корелли, Вивальди, Тартини, Виотти, он сознавал, что богатые средства скрипки не вполне ещё угаданы этими авторами. Труд знаменитого Локателли «L’Arte di nuova modulazione» навёл Паганини на мысль воспользоваться разными новыми эффектами в скрипичной технике. Разнообразие красок, широкое применение натуральных и искусственных флажолетов, быстрое чередование пиццикато с арко, удивительное искусное и разнообразное применение стаккато, широкое применение двойных и тройных струн, замечательное разнообразие применения смычка, игра на одной струне (четвёртой) целых пьес — всё это приводило в удивление публику, знакомившуюся с доселе неслыханными скрипичными эффектами. Паганини был настоящим виртуозом, обладавшим в высшей степени яркой индивидуальностью, основывая свою игру на оригинальных технических приёмах, которые он исполнял с непогрешимой чистотой и уверенностью. Паганини обладал драгоценной коллекцией скрипок Страдивари, Гварнери, Амати, из которых свою замечательную и наиболее любимую скрипку работы Гварнери завещал родному городу Генуе, не желая, чтобы какой-нибудь другой артист на ней играл. Скрыть...
Популярные аккорды Niccolò Paganini:
алфавиту | просмотрам | случайно
  • Обозначения:
    
    Пальцы левой руки подписаны под табом
    
    ⁄      Слайд вниз
    /      Слайд вверх
    --6--  6 нот играется за одну четверть
    CIII   Большое баррэ на 3-ем ладу
    cV     Малое баррэ на 5-ом ладу
    3p1    пулл с 3-его лада…
  • Theme
        Moderately Fast Q=126
        (Am)            (E)             (Am)            (E)
       2/4
        Gtr I
    ||----------------|---------------|---------------|-----------||
    ||o---------------|---------------|---------------|----------o||
    ||----------------|-9-------------|---------------|-9⁄--------||
    ||--7--7-7h10p9p7-|---------------|-7--7-7h10p9p7-|-----2-----||
    ||o---------------|----7-7h11p9p7-|---------------|----------o||
    ||----------------|---------------|---------------|-----------||…
  • E|-----0-0-----------2-2-------------0-0-------------7-7-------|
    B|---0-----0-------0-----0---------0-----0---------4-----4-----|
    G|--1--------1----2--------2-----1---------1-----4---------4---|
    D|-2----------2-1------------1-2-------------2-----------------|
    A|-------------------------------------------------------------|
    E|---------------------------------------------7-------------7-|
    
    E|------0-0------------2-2------------0-0------------7-7-------|
    B|----0-----0--------0-----0--------0-----0--------4-----4-----|
    G|--1---------1----2---------2----1---------1----4---------4---|
    D|-2------------2-1------------1-2------------2----------------|
    A|-------------------------------------------------------------|
    E|----------------------------------------------7------------7-|
    
    E|-------4-4-------------5-9-12-------6-6-------------7-11-14-|
    B|------------------------------------------------------------|
    G|-----4-----4---------6------------6-----6---------8---------|
    D|---2---------2------------------4---------4-----------------|
    A|-------------------7----------------------------9-----------|
    E|-4-------------4-5------------6-------------6-7-------------|
    
    E|-------11-11-----------12-12------------14-14--------|
    B|----------------------9-----9--------12-------12-----|
    G|-----11-----11---------------------------------------|
    D|----9---------9------9-------9-----13-----------13---|
    A|-------------------7-----------7-9-----------------9-|
    E|-11-------------11-----------------------------------|
    
    E|--------16-16----------------17-17---------|
    B|------12-----12-----------14-------14------|
    G|---------------14--------------------------|
    D|----14-----------------14-------------14---|
    A|-11--------------11-12-------------------0-|
    E|-------------------------------------------|
    
    E|-------9-9-------------12-12-------------9-9-------|
    B|-----5-----5---------8-------8---------5-----5-----|
    G|---------------------------------------------------|
    D|---5---------5-----8-----------8-----5---------5---|
    A|---------------------------------------------------|
    E|-6-------------6-9---------------9-6-------------6-|
    
    E|--------18-18---------------15-15--------------12-12-------|
    B|---------------------------------------------8-------8-----|
    G|------18-----18-----------15-----15------------------------|
    D|----14---------14--------------------------8-----------8---|
    A|------------------------16---------16----------------------|
    E|-15---------------15-12---------------12-9---------------9-|
    
    E|-------7-11-14-------2-2-------------4-7-12-------2-2-----|
    B|-------------------0-----0----------------------0-----0---|
    G|-----8-----------------------------4----------------------|
    D|-----------------1---------1-----2------------1---------1-|
    A|---9-----------0-------------0--------------0-------------|
    E|-7-----------------------------4--------------------------|
    
    E|---------4----12-|---5---7---9---8---7---7----12-|
    B|-----------12----|-------5--------------------9--|
    G|-------4---------|---6-------9---9---9---8----9--|
    D|-----2-----------|-------6---7---8---6--------9--|
    A|-0---------------|---7-------------------9----11-|
    E|---4-------------|-5---7---9---8---7---7---0-----|
    
    E|-------0-0-----------------------------0-0-------------7-7--|
    B|-----------------------7-7----------------------------------|
    G|-----4-----4---------4-----4---------4-----4---------8------|
    D|---5---------5-----4---------4-----5---------5--------------|
    A|-7-------------7-6-------------6-7-------------7---9--------|
    E|-------------------------------------------------7----------|
    
    E|-------------0-0---------------------------0-0-------------7-|
    B|----------------------------7-7------------------------------|
    G|-8---------4-----4---------4----4--------4-----4---------8---|
    D|---------5---------5-----4--------4-----5--------5-----------|
    A|---9---7-------------7-6------------6-7------------7---9-----|
    E|-----7-----------------------------------------------7-------|
    
    E|-7-------------7-7-------------8-8-------------5-5-------|
    B|---------------------------------------------------------|
    G|---8---------7-----7---------7-----7---------7-----7-----|
    D|---------------------------4---------4-----4---------4---|
    A|-----9-----9---------9---0-------------0-0-------------0-|
    E|-------7-7-------------7---------------------------------|
    
    E|-----------------------3-3-------------7-7-------------10-|
    B|-------3-3-------------------------------------------0----|
    G|-----4-----4---------4-----4---------0-----0--------------|
    D|---------------------------------------------------0------|
    A|---5---------5-----5---------5-----5---------5--"10"------|
    E|-3-------------3-3-------------3-3-------------3-3--------|
    
    E|-10-------------8---12-|
    B|----0------------------|
    G|--------------9-----12-|
    D|------0----------------|
    A|-------"10"-10------12-|
    E|--------3-8-------9----|
    
    E|----------10----14----------12----14----15----17----19---8-|
    B|----------------------------------------12----15----15---5-|
    G|-------11-------14-------12-------14---------------------0-|
    D|----------------------------------12----12----16----17-----|
    A|----12----------14----15-------------------12----14--------|
    E|-10----------11----12----------14----15----------------8---|
    
    E|-------12-15------10-8--7------------------|
    B|-----8------------12-10-8-10-8-7-5-3-1-0---|
    G|--------------------------11-9-7-5-4-2-0-2-|
    D|---8-------------------------------------4-|
    A|-------------------------------------------|
    E|-9-----------9-10--------------------------|
    
    E|-------3-3-------------2-2-------10-8--7------------------|
    B|-----0-----0---------1-----1-----12-10-8-10-8-7-5-3-1-0---|
    G|-----------------------------------------11-9-7-5-4-2-0-2-|
    D|---0---------0-----1---------1-0------------------------4-|
    A|----------------------------------------------------------|
    E|-3-------------3-3-------------3--------------------------|
    
    E|-------3-3-------------2-2-------10-8--7-5--3-2-----------|
    B|-----0-----0---------1-----1-----12-10-8-7--5-3-5-3-1-0---|
    G|------------------------------------------------5-4-2-0-2-|
    D|---0---------0-----1---------1-0------------------------4-|
    A|----------------------------------------------------------|
    E|-3-------------3-3-------------3--------------------------|
    
    E|-------3-3-------------3-3-------|----9--8-6-6-4-3-----------|
    B|---------------------------------|----11-9-8-8-6-4-6-4-2-1---|
    G|-----4-----4---------3-----3-----|-----------------6-5-3-1-3-|
    D|---0---------0-----0---------0---|-------------------------5-|
    A|---------------------------------|--6------------------------|
    E|-3-------------3-3-------------3-|--3------------------------|
    
    E|-------4-4-------------4-4-------|---10-9--7-7-5-4-----------|
    B|---------------------------------|---12-10-9-9-7-5-7-5-3-----|
    G|-----5-----5---------4-----4-----|-----------------7-6-4-6-4-|
    D|---------------------------------|-----------------------7-6-|
    A|---6---------6-----6---------6---|-7-------------------------|
    E|-4-------------4-4-------------4-|-4-------------------------|
    
    E|-------5-5-----------5-5-------|---11-10-8--8--6-5-----------|
    B|-------------------------------|---13-11-10-10-8-6-8-6-4-----|
    G|-----6-----6-------5-----5-----|-------------------8-7-5-7-5-|
    D|-------------------------------|-------------------------8-7-|
    A|---7--------7-----7--------7---|-8---------------------------|
    E|-5------------5-5------------5-|-5---------------------------|
    
    E|-------6-6-------------6-6-------|
    B|---------------------------------|
    G|-----7-----7---------6-----6-----|
    D|---------------------------------|
    A|---8---------8-----8---------8---|
    E|-6-------------6-6-------------6-|
    
    E|--------6-6-------------9-9-------|
    B|----------------------------------|
    G|------6-----6---------9-----9-----|
    D|----------------------------------|
    A|----9---------9-----9---------9---|
    E|--6-------------6-6-------------6-|
    
    E|-------7-7-------------7-7-------|
    B|---------------------------------|
    G|-----8-----8---------7-----7-----|
    D|---------------------------------|
    A|---9---------9-----9---------9---|
    E|-7-------------7-7-------------7-|
    
    E|---------7-7----------------10-10---------|
    B|------------------------------------------|
    G|-------7-----7-----------10-------10------|
    D|------------------------------------------|
    A|----10---------10-----10-------------10---|
    E|--7---------------7-7-------------------7-|
    
    E|--------8-8---------------8-8--------|
    B|-------------------------------------|
    G|------9-----9-----------8-----8------|
    D|-------------------------------------|
    A|---10---------10-----10---------10---|
    E|-8---------------8-8---------------8-|
    
    E|--------8-8--------------11-11--------|----------------------|
    B|-----------------------7-------7------|------------6-6-------|
    G|------8-----8-------------------------|Pause-----6-----6-----|
    D|--------------------------------------|----------------------|
    A|---11---------11----11-----------11---|--------8---------8---|
    E|-8--------------8-8-----------------8-|------9-------------9-|
    
    E|---------------------------------|
    B|-------7-7-------------6-6-------|
    G|-----8-----8---------6-----6-----|
    D|---------------------------------|
    A|---6---------6-----8---------8---|
    E|-8-------------8-9-------------9-|
    
    E|--------4-4-------------0-0-------|
    B|----------------------2-----2-----|
    G|------5-----5---------------------|
    D|--------------------2---------2---|
    A|----6---------6---4-------------4-|
    E|--4-------------4-----------------|
    
    E|-------2-2-------------0-0-------|
    B|-----4-----4---------2-----2-----|
    G|---------------------------------|
    D|---1---------1-----2---------2---|
    A|-3-------------3-4-------------4-|
    E|---------------------------------|
    
    E|--------4-4-------------0-0-------|
    B|------1-----1---------2-----2-----|
    G|----------------------------------|
    D|----1---------1-----2---------2---|
    A|------------------4-------------4-|
    E|--4-------------4-----------------|
    
    E|-------0-0-------------5-5-------|--------9-9---------7---7-|
    B|-----3-----3---------------------|------5-----5-------------|
    G|---1---------1-------6-----6-----|--------------------8---8-|
    D|---------------------------------|----5---------5-----------|
    A|-2-------------2---7---------7---|--------------------9-0-9-|
    E|-----------------5-------------5-|--6-------------6-7-------|
    
    E|---4---5---7---7-|-----12--------0-0-------|
    B|-------2---5-----|-----9-------------------|
    G|---4-----------8-|-----9-------4-----4-----|
    D|---2---2---6-----|-----9-----6---------6---|
    A|-----0---------9-|-----11--7-------------7-|
    E|-4-------7---7---|--0----------------------|
    
    E|-------0-0-------------0-0-------|
    B|---------------------------------|
    G|-----5-----5---------3-----3-----|
    D|---7---------7-----5---------5---|
    A|-7-------------7-7-------------7-|
    E|---------------------------------|
    
    E|------------------9--------------|
    B|--------5-12-10-9-10-12-10-9-7-5-|
    G|------4---13-11-9----13-11-9-8-6-|
    D|----6----------------------------|
    A|--7------------------------------|
    E|---------------------------------|
    
    E|-------7-7-------------7-7-------|
    B|-----5-----5---------------------|
    G|---------------------8-----8-----|
    D|---6---------6-------------------|
    A|-------------------9---------9---|
    E|-7-------------7-7-------------7-|
    
    E|--------0-16-12-------12-12-------|
    B|------0-------------9-------9-----|
    G|----------------------------------|
    D|----6-------------9-----------9---|
    A|--7-------------7---------------7-|
    E|----------------------------------|
    
    E|---------12-12---------------12-12-------|--------12-----|
    B|------10-------10----------8-------8-----|------9--------|
    G|-----------------------------------------|---------------|
    D|---11-------------11-----8-----------8---|----9------6-7-|
    A|-7-------------------7-7---------------7-|--7--------7-9-|
    E|-----------------------------------------|---------------|
    
    E|------------------|--------12-12-------------11-11-------|
    B|-----------7-9-10-|------9-------9---------7-------7-----|
    G|----6-8-9--8-9-11-|----9-----------9-----8-----------8---|
    D|-9--7-9-11--------|--9---------------9-9---------------9-|
    A|-11---------------|--------------------------------------|
    E|------------------|--------------------------------------|
    
    E|-----------16---------------------17---------|
    B|--------17---------------------17------------|
    G|----------------------------14-------14------|
    D|------14------14-----------------------------|
    A|----14----------14-------15-------------15---|
    E|-0-----------------0--0--------------------0-|
    
    E|-----------16---------------------17---------|
    B|--------17---------------------17------------|
    G|----------------------------14-------14------|
    D|------14------14-----------------------------|
    A|----14----------14-------15-------------15---|
    E|-0-----------------0---0-------------------0-|
    
    E|-----------16---------------12-----|---7-5-4-----------------|
    B|--------17----------------8--------|---9-7-5-7-5-4-----------|
    G|-----------------------------------|---------8-6-4-6-4-------|
    D|-----14-------14--------8----------|---------------7-6-7-6-4-|
    A|---14-----------14-----------------|-------------------9-7-6-|
    E|-0-----------------0--9--------9-6-|-7-----------------------|
    
    E|---------4---------------5-------|
    B|-------5---------------5---------|
    G|-----4-----4---------5-----5-----|
    D|---6---------6-----7---------7---|
    A|-7-------------7-7-------------7-|
    E|---------------------------------|
    
    E|----------4---------------5-------|
    B|--------5---------------5---------|
    G|------4-----4---------5-----5-----|
    D|----6---------6-----7---------7---|
    A|--7-------------7-7-------------7-|
    E|----------------------------------|
    
    E|---------4---------------3---|--------7---------------------|
    B|-------5---------------5---5-|----5-------------------------|
    G|-----4-----4---------3-------|----4-------------------------|
    D|---6---------6-----5---------|------6----------6-7-9--11-13-|
    A|-7-------------7-4-----------|----------6-7-9--7-9-11-12-14-|
    E|-----------------------------|--7-------7-9-11--------------|
    
    E|----------0-0-------------------0-|
    B|-------12-----12-------------13---|
    G|----13-----------13-------14------|
    D|-14-----------------14-14---------|
    A|----------------------------------|
    E|----------------------------------|
    
    E|-0-------------------0-0----------|
    B|---13-------------12-----12-------|
    G|------14-------13-----------13----|
    D|---------14-14-----------------14-|
    A|----------------------------------|
    E|----------------------------------|
    
    E|----------0-0-------------------0-|
    B|-------12-----12-------------10---|
    G|----11-----------11-------11------|
    D|-13-----------------13-11---------|
    A|----------------------------------|
    E|----------------------------------|
    
    E|-0-------------------0-0----------|
    B|---10-----------------------------|
    G|------11----------13-----13-------|
    D|---------11----13-----------13----|
    A|------------14-----------------14-|
    E|----------------------------------|
    
    E|-------0-0-------------0-0-------------0-0-------|
    B|-----7-----7---------4-----4---------5-----5-----|
    G|---6---------6-----2---------2-----1---------1---|
    D|-7-------------7-4-------------4-2-------------2-|
    A|-------------------------------------------------|
    E|-------------------------------------------------|
    
    E|-------0-0-------------0-0-------------0-0-------|
    B|-----4-----4---------5-----5---------4-----4-----|
    G|---2---------2-----1---------1-----2---------2---|
    D|-3-------------3-2-------------2-3-------------3-|
    A|-------------------------------------------------|
    E|-------------------------------------------------|
    
    E|-----0------0--------0-|-0-------------0-0-------|--0----0-|
    B|---5------9--------5---|---9---------5-----9-----|--0------|
    G|-----------------------|-------------------------|--1------|
    D|---6------6------6-----|-----6-----6---------6---|--2------|
    A|---------------7-------|-------7-7-------------7-|--2------|
    E|-0------0--------------|-------------------------|--0------|…
  • Posato
    
         forte
    E||--------|--8----7-5--4----7--|--5--0----------5--7-|
    B||--5--5--|--------------------|---------------------|
    G||--------|--------------------|-------7-5-4-2--2--4-|
    D||--------|--10---9-7--6----9--|--7------------------|
    A||--7--7--|--------------------|-----7-5-3-2-0-------|
    E||--------|--------------------|---------------------|…
  • (трель)
    E-------7--5--3--1---------------------------------------------------|
    B--8----0----------6-----5----3----1----------------5--3-------------|
    G--5--------------------------1---------5--7-5-4-5---------4h5p4h5p4-|
    D-------0----------5-----5---------2----4-----------5------3---------|
    A--7---------------3-----3----2----0---------------------------------|
    E---------------------------------------4-----------3------3---------|…
  • Обозначения:
    Пальцы левой руки подписаны под табом
    ⁄    слайд
    2h3  Хаммер со 2-ого лада на 3-ий
    3p2  Пулл со 3-его лада на 2-ой
    
    Размер: 4/4
    
    E|-2----0-|-----------------0-----2-|--3-----0-----------5---3-|
    B|--------|--2h3----------3---------|--------------------------|
    G|--------|-------2-----------------|--------------------------|
    D|--------|--0--------0-------------|--------------------------|
    A|--------|-------------------------|--0-----------0-----------|
    E|--------|-------------------------|--------------------------|
    
    E|--3p2---0-----------------------0-|-------------------2----0-|
    B|----------3-----2-0-----2-3-------|-2---3-0---2--------------|
    G|----------------------------------|-------------2------------|
    D|--0-------------------------------|--------------------------|
    A|----------------------------------|-0-----------0------------|
    E|------------------3---------------|-------0------------------|
    
    E|--------------------------0-----2-|--2h3---0---------5-----3-|
    B|--2h3-------------------3---------|--------------------------|
    G|----------2-----------------------|--------------------------|
    D|--0---------------0---------------|--------------------------|
    A|----------------------------------|--0---------0-------------|
    E|----------------------------------|--------------------------|
    
    E|--2-----5-5p3---2-0-----3-3p2-0---|--------------||--5-----5-|
    B|----------------------------------|--3--3----3---||--7-----7-|
    G|----------------------------------|--------------||----------|
    D|--0-------------------------------|--0--0----0---||----------|
    A|------------------0---------------|--------------||----------|
    E|----------------------------------|--------------||----------|
    
    E|--7-----5-7-----5-7-----5-3-----2-|--0--2-3--2-0-----2-3---4-|
    B|--8-----7-8-----7-8-----7-5-----3-|--2--3-5--3-2-----3-5---6-|
    G|--0---------------0---------------|--------------------------|
    D|----------------------------------|--------------------------|
    A|----------------------------------|--0---------0-------------|
    E|----------------------------------|--------------------------|
    
    E|--5----⁄4-5-----4-5-----3-2-----0-|------------------2-----0-|
    B|--7----⁄6-7-----6-7-----5-3-----2-|--3--2-0--3-2-------------|
    G|----------------------------------|--4--2-1--4-2-------------|
    D|--0---------------0---------------|--------------------------|
    A|----------------------------------|------------0-------------|
    E|----------------------------------|--0-----------------------|
    
    E|--------------------------0-----2-|--2h3---0-----------5---3-|
    B|--2h3-------------------3---------|--------------------------|
    G|----------2-----------------------|--------------------------|
    D|--0---------------0---------------|--------------------------|
    A|----------------------------------|--0-----------0-----------|
    E|----------------------------------|--------------------------|
    
    E|--2-----5-5p3---2-0-----3-3p2---0-|-------------------------||
    B|----------------------------------|--2h3-----3-------3------||
    G|----------------------------------|-------------------------||
    D|--0-------------------------------|--0-------0-------0------||
    A|------------------0---------------|-------------------------||
    E|----------------------------------|-------------------------||…
  • E|-------3-5-6-2-5-3-------|------------10--8------------------|
    B|-----3-------------3-----|-------------------10--7-----------|
    G|---3-----------------3---|---2---2------------------7--------|
    D|-5---------------------5-|-4---1---0-------------------10--7-|
    A|-------------------------|-----------------------------------|
    E|-------------------------|-----------------------------------|
    
    E|-----------------8---------------------|
    B|--------------7-----10--7--------------|
    G|-----------8---------------8-----------|
    D|----7--10---------------------10--8--7-|
    A|-9-------------------------------------|
    E|---------------------------------------|
    
    E|----------------------------13p10---|
    B|-------------------------12------12-|
    G|----7-----7-----------12------------|
    D|-8-----7-----------12---------------|
    A|------------10h14-------------------|
    E|------------------------------------|
    
    E|-8----------------------11p8------|
    B|---8-----------------10-------10--|
    G|-----8------------10--------------|
    D|-------10------10-----------------|
    A|------------12--------------------|
    E|----------8-----------------------|
    
    E|-6-----------------------8-------|
    B|---6---------11-10-8-------10----|
    G|-----7------------------------11-|
    D|-------8-------------------------|
    A|----------------------9----------|
    E|----------6----------------------|
    
    E|----------------------------------|
    B|-11p8-----11---11---11---11---11--|
    G|----------------------------------|
    D|----------------------------------|
    A|-------10----8----6----5----4-----|
    E|----------------------------------|
    
    E|----------10----14-10----------------|
    B|----10-------10-------10-------------|
    G|-------11----------------11----------|
    D|----------------------------12-10----|
    A|----------------------------------12-|
    E|-10----------------------------------|
    
    повторить…
  • E|-19-21-22-19-21-18-20-17-19-16-18-15-|
    B|-------------------------------------|
    G|-------------------------------------|
    D|-------------------------------------|
    A|-------------------------------------|
    E|-------------------------------------|
    
    E|-17-14-16-13-15-12-14-11-13-10-12-9-|
    B|------------------------------------|
    G|------------------------------------|
    D|------------------------------------|
    A|------------------------------------|
    E|------------------------------------|
    
    E|-10-13-15-13-14---------|-----------------------------------|
    B|-------------------14---|-12-14-15-12-14-11-13-10-12-9-11-8-|
    G|----------------16------|-----------------------------------|
    D|------------------------|-----------------------------------|
    A|------------------------|-----------------------------------|
    E|------------------------|-----------------------------------|
    
    E|------------------------------|-----3---2------|
    B|-10-7-9-6-8-5-7-4-6-3-5-2-----|-3-6---6------2-|
    G|------------------------------|-----------4----|
    D|------------------------------|----------------|
    A|------------------------------|----------------|
    E|------------------------------|----------------|
    
    (2-ой…
  • затакт
    E|-----------3-------0-------|------------------------0---1----|
    B|---------------------------|1---------------1---3------------|
    G|-------------0---0---0---0-|--0---0---0---0---0---0---0---0--|
    D|---------------2-------2---|----2-------2-------2-------2----|
    A|-----------3-------3-------|3-------3-------3-------3--------|
    E|---------------------------|---------------------------------|
    
    E|-----------------1---------------|
    B|-3-----------------------3-------|
    G|---0---0---0---0---0---0---0---0-|
    D|-----0-------0-------0-------0---|
    A|-2-------2-------2-------2-------|
    E|---------------------------------|
    
    E|-----------------------------0---|
    B|-0---------------0---1---3-------|
    G|---0---0---0---0---0---0---0---0-|
    D|-----0-------0-------0-------0---|
    A|---------------------------------|
    E|-3-------3-------3-------3-------|
    
    E|-----------------3-------0-------|
    B|-1-------------------------------|
    G|---0---0---0---0---0---0---0---0-|
    D|-----2-------2-------2-------2---|
    A|-3-------3-------3-------3-------|
    E|---------------------------------|
    
    E|-1-------3-1-0---------------0---|
    B|---------------3-1-------3-------|
    G|-------------------0---0---0---0-|
    D|---3---3-------------2-------0---|
    A|-----0-----------3-------2-------|
    E|-1-------1-----------------------|
    
    E|-------------0-1-3-------0-------|
    B|-1-------1-3---------------------|
    G|---0---0-----------0---0---0---0-|
    D|-----2---------------2-------2---|
    A|-3-------3-------3-------3-------|
    E|---------------------------------|
    
    E|-1-------3-1-0---------------0---|
    B|---------------3-1-------3-------|
    G|-------------------0---0---0---0-|
    D|---3---3-------------2-------0---|
    A|-----0-----------3-------2-------|
    E|-1-------1-----------------------|
    
    E|-----3---0---1---0---------|-----------3---2---0-----------0-|
    B|-1-------------------3---1-|---0---3---------------2---3-----|
    G|---------------------------|---------------------------------|
    D|---2-------0---------------|---------2---0-------------------|
    A|-3-----3-------3---2---0---|-----2-----------4---0---2---4---|
    E|---------------------------|-3-------------------------------|…
  • Обозначения:
    
    Пальцы левой руки указаны под табом
    2p0  = Пулл со 2-ого лада на открытую струну
    CVII = Большое баррэ на 7-ом ладу
    
    Размер: 4/4
    Строй: DADGBE
    
    0
    e-----5---7---9-|--10------10-----10-10------10------|
    B---------------|------------------------------------|
    G---2---4---6---|--7-------7------7--7-------7-------|
    D---------------|----------0------0--0-------0-------|
    A---------------|------------------------------------|
    D---------------|--0---------------------------------|
    
    2
    e|-10-----------------------|----------2---3---5-------5---3---|
    B|--------------------------|----------3---5---7-------7---5---|
    G|-7------------------------|----------------------------------|
    D|-0------------------------|----------0---------------0-------|
    A|--------------------------|----------------------------------|
    D|---------0-----0-0------0-|--0---------------0---------------|
    
    4
    e|--2-------2-----2-2-------|------------------------2-2p0-----|
    B|--3-------3-----3-3-------|--3-------3-----3-3-------------3-|
    G|--------------------------|--2-------2-----2-2---------------|
    D|--------------------------|--4-------4-----4-4---------------|
    A|--------------------------|----------------------------------|
    D|--0-------0-------0-------|--0-------0-------0---------------|
    
    6
    e|-0----0----0-0---3-3p2---0-|---------------0-2---3-2-0-------|
    B|-2----2----2-2-------------|-3-----2-3-------------------3---|
    G|-2----2----2-2-------------|---------------------------------|
    D|---------------------------|---------0---------------0-------|
    A|-0----0------0-------------|---------------------------------|
    D|---------------------------|-0---------------0---------------|
    
    8
    e|--5-----------------||
    B|--------------------||
    G|----------2-----2-2-||
    D|--------------------||
    A|--0-------0-----0-0-||
    D|--------------------||…
  • Обозначения:
    Пальцы левой руки указаны под табом
    1  - Указательный
    2  - Средний
    3  - Безымянный
    4  - Мизинец
    
     CII   = Большое баррэ на 2-ом ладу
    __3__  = триоль
    
    Размер: 3/4
    
    1   |   .   |    .    |   .      |   .    |…
  • E|-------------------7--12---11-8-7----------------------------|
    B|-----------------8----------------10-8-7---------------------|
    G|-----------0---9-------------------------9-8-----------------|
    D|---------2---9-------------------------------10-9-7----------|
    A|-------2--------------------------------------------10-9-7-6-|
    E|-0---3-------------------------------------------------------|
    
    E|------------------------------------12--15----14-12-11-8-7-|
    B|---------------------------------12------------------------|
    G|---------------------0--------12---------------------------|
    D|-------------------2-------14------------------------------|
    A|-----------------2------14---------------------------------|
    E|-8-7-5-3-2-0---3-------------------------------------------|
    
    E|---------------------------------------|
    B|-10-8-7--------------------------------|
    G|--------9-8----------------------------|
    D|------------10-9-7---------------------|
    A|-------------------10-9-7-6------------|
    E|----------------------------8-7-5-3-2--|
    
    E|--------------------------12-15-19----17-15-14-12-11-8-7-|
    B|-----------------------12--------------------------------|
    G|-----------0--------12-----------------------------------|
    D|---------2-------14--------------------------------------|
    A|-------2------14-----------------------------------------|
    E|-0---3---------------------------------------------------|
    
    E|-----------------------------------------------------|
    B|10-8-7-----------------------------------------------|
    G|-------9-8-------------------------------------0-----|
    D|-----------10-9-7----------------------------2-------|
    A|------------------10-9-7-6-----------------2------14-|
    E|---------------------------8-7-5-3-2-0---3-----------|
    
    
    E|-------------15-19-24-23-20-19-------------------------|
    B|-------12-17-------------------22-20-19----------------|
    G|----12----------------------------------21-20-17-16----|
    D|-14-------------------------------------------------19-|
    A|-------------------------------------------------------|
    E|-------------------------------------------------------|
    
    E|-----------------------------------------|
    B|-----------------------------------------|
    G|-----------------------------------------|
    D|-17-16-14-13-----------------------------|
    A|-------------15-14-12-10-9-7-6-----------|
    E|-------------------------------8-7-5-3-2-|
    
    E|---------------------------------------------------|
    B|-------------------------------------------1-2-3-4-|
    G|-----------------------------------1-2-3-4---------|
    D|---------------------------2-3-4-5-----------------|
    A|-------------------3-4-5-6-------------------------|
    E|-0---1-2-3-4-5-6-7---------------------------------|
    
    E|-----------------------------------------------------------|
    B|-5-4-3-2-------------------------------------------------5-|
    G|---------5-4-3-2-----------------------------------------0-|
    D|-----------------6-5-4-3-----------------------------------|
    A|--------------------------7-6-5-4------------------------2-|
    E|----------------------------------8-7-6-5-4-3-2-1-0--------|
    
    E||---------------------------------|
    B||---------------------------------|
    G||-------------------9-7-5---------|
    D||---5-9-5---7-9-7-5-------9-7-5---|
    A||-7-------9---------------------9-|
    E||---------------------------------|
    
    E|----------------------------------|
    B|----------------------------------|
    G|-------------------9-7-5----------|
    D|---5-9-5---7-9-7-5-------9-7-5----|
    A|-7-------9----------------------9-|
    E|----------------------------------|
    
    E|----------------------------------|
    B|----------------------------------|
    G|------------------------------4---|
    D|---6-9-6---7-10-7---4-7-4---5---5-|
    A|-7-------7--------5-------5-------|
    E|----------------------------------|
    
    E|------------------------------------14-|
    B|---------------------------------16----|
    G|------------------------------16-------|
    D|-----10-7------14----------16----------|
    A|-6-9------10-7----13-14-18-------------|
    E|---------------------------------------|
    
    E|17-19-|-------------------------------------------------|
    B|------|----------------------------17-15-13-------------|
    G|------|----12-16-12----14-16-14-12----------16-14-12----|
    D|------|-14----------16-------------------------------16-|
    A|------|-------------------------------------------------|
    E|------|-------------------------------------------------|
    
    E|----------------|---------------------------------|
    B|----------------|------------17-15-13-------------|
    G|----12-16-12----|14-16-14-12----------16-14-12----|
    D|-14----------16-|------------------------------16-|
    A|----------------|---------------------------------|
    E|----------------|---------------------------------|
    
    E|-------------12----------------14-12----|---------|
    B|-------12-------15-13-12-------------15-|13-12----|
    G|----13----13-------------13-14----------|------14-|
    D|-14-------------------------------------|---------|
    A|----------------------------------------|---------|
    E|----------------------------------------|---------|
    
    E|---------------------------------------------|
    B|---------------------------------------------|
    G|-12-11------------------------12--------11---|
    D|-------14-12-11-12-14-10-9-12----9-7-10----7-|
    A|---------------------------------------------|
    E|---------------------------------------------|
    
    E|-------------------|--------------|
    B|-------------------|--------------|
    G|-----9-------7-----|--5-------5---|
    D|-5-9---9-4-7---7-2-|5---2-1-5---1-|
    A|-------------------|--------------|
    E|-------------------|--------------|
    
    E|---------------3--------5--------7--|--------8--------------|
    B|-------------3--------7--------8----|------8-------11-------|
    G|-----5-----4--------5--------7------|----9------------12----|
    D|-0-4---4-5--------7--------9--------|-10--------11-------14-|
    A|------------------------------------|-----------------------|
    E|------------------------------------|-----------------------|
    
    E|----10-------------------|----15-14-12----------------14-12-|
    B|-------12-------13-10----|-------------15-13-12----13-------|
    G|----------12----------11-|-12-------------------12----------|
    D|12-----------12----------|----------------------------------|
    A|-------------------------|----------------------------------|
    E|-------------------------|----------------------------------|
    
    E|----------------|----12-10-8--------------10-8-7----------|
    B|-15-14-12-11----|-12---------12-10-9---10--------10-8-7---|
    G|-------------11-|--------------------9------------------7-|
    D|----------------|-----------------------------------------|
    A|----------------|-----------------------------------------|
    E|----------------|-----------------------------------------|
    
    E|---8-7---------------------9-12-|15-9-|-15-10----|
    B|-8-----10-8-7---------8-11------|-----|-------12-|
    G|--------------9-7-6-9-----------|-----|----------|
    D|--------------------------------|-----|----------|
    A|--------------------------------|-----|----------|
    E|--------------------------------|-----|----------|
    
    E|----------------14-10------------------|----15-14-13-12-11-|
    B|----------------------10---------------|-------------------|
    G|-12----------------------11------------|-------------------|
    D|----12-9--------------------12---------|-------------------|
    A|---------10--------------------12-9----|-10----------------|
    E|------------10----------------------10-|-------------------|
    
    E|10-9-------------------------|------------------------------|
    B|-----13-12-11-10-------------|------------------------------|
    G|-----------------13-12-11-10-|----------------------------9-|
    D|-----------------------------|-14-13-12-11-10-9-8-7-----9---|
    A|-----------------------------|-----------------------10-----|
    E|-----------------------------|------------------------------|
    
    E|------------|-----------------------------------------|
    B|------------|-----------------------------------------|
    G|-7---7------|--------------7-------------------7------|
    D|-------10-7-|----9-----------10-7----9-----------10-7-|
    A|---9--------|-10------10-9--------10------10-9--------|
    E|------------|------10------------------10-------------|
    
    играть…
  • Allegro risoluto
    E||----------------------|--2-----0--------2-0---------|
    B||--2---------3----4----|---------------------3-2-3-0-|
    G||----------------------|---------------2-------------|
    D||-------2--------------|-------------2---------------|
    A||--0-------------------|-----0--4--------------------|
    E||----------------------|---------------------0-------|
    
    E|-----------------------|--------------------|-2-----4-7-5--2-|
    B|-------------0-----3-2-|-0---------2--------|-3--------------|
    G|-2---------------------|----1-1-1--2--------|----2-----------|
    D|----2-----2-----2------|--------------2-----|-0--------------|
    A|-0-----4---------------|-0--------------4-0-|----------------|
    E|-------------4-----0---|--------------------|----------------|
    
    E|---------------5-4-2-0-----|------------------------|
    B|-4--5--5---------------3-2-|--2--0--0-------2--0----|
    G|-------2-------------------|----------------------2-|
    D|---------------------------|--0----------1----------|
    A|-4--------0----------------|------------------------|
    E|---------------------------|------------------------|
    
    E|-------------------------|--9----------10----11-|
    B|-------------------------|----------------------|
    G|-2--1--------------------|----------------------|
    D|-------4--2-----0--------|-------11-------------|
    A|-------------------4--2--|--0-------------------|
    E|-0-----------0-----------|----------------------|
    
    E|-14-----12------14-12-10-9-10----|---------------7----10--9-|
    B|------------------------------12-|--10----------------------|
    G|---------------------------------|--------------------------|
    D|---------------------------------|--------------------------|
    A|-----0---------------------------|------0-----0-------------|
    E|---------------------------------|---------9----------0-----|
    
    E|-7-----------------------|-2-----4--7--5--2-|---------------|
    B|----9--9--9--10----------|-3----------------|-4-5-5-3-3-2-2-|
    G|-------------------------|----2-------------|-----2---2-----|
    D|-------------7-----------|-0----------------|---------4-----|
    A|-----------------7-----0-|------------------|-4-------------|
    E|-0------------------9----|------------------|---------------|
    
    E|----------2----------|-----9--7-------------------------7--9-|
    B|----0--3--------2--0-|-----------10--9--7-----7--9--10-------|
    G|-3-----------2--4----|---------------------9-----------------|
    D|-0-----------2-------|--7------------------------------------|
    A|---------------------|--0------------------0-----------------|
    E|----------------0----|---------------------------------------|
    
    E|-10-9-7--7---------------0--2--4-|-5-------------------------|
    B|------------10-9-9-7--5----------|---2-0----------------0--2-|
    G|---------------------------------|-------2-1-------1-2-------|
    D|---------------------------------|-----------4-2-4-----------|
    A|---------------------------------|-0-----------0-------------|
    E|-0-------0-------0-------0-------|---------------------------|
    
    E|------------------------------------|----------5-|
    B|-3--2--0--0-------------------------|----------2-|
    G|-------------2--1--1--------------1-|-2--------2-|
    D|----------------------4--2--2--4----|----------2-|
    A|------------------------------------|-0--------0-|
    E|-0--------0--------0--------0-------|------------|
    
    E|-9---7-5-4-------|--------2--4--5--9-|-7-------5--4--2-------|
    B|------------7--6-|-7---2-------------|------------------5--4-|
    G|-6---------------|-------------------|-----------------------|
    D|-----------------|-------------------|-----------------------|
    A|---0--------4----|-------------------|-7---------------------|
    E|-----------------|---2---------------|------0----------------|
    
    E|-0----------------0--2--|--3-------------------0---0---0---|
    B|---------0--2--4--------|----------1---------------1-------|
    G|------------------------|----0---0---0---0---0---0---0---0-|
    D|-2----------------------|------2-------2-------2-------2---|
    A|------------------------|--3---------------3---------------|
    E|------0-----------------|----------------------------------|
    
    E|-3-------------------0---0---0---|
    B|---------0---------------0-------|
    G|---0---0---0---0---0---0---0---0-|
    D|-----2-------2-------2-------2---|
    A|-2---------------2---------------|
    E|---------------------------------|
    
    E|--3-------------------3---2---0---|
    B|----------0---------------0-------|
    G|----0---0---0---0---0---0---0---0-|
    D|------2-------2-------2-------2---|
    A|--1---------------1---------------|
    E|----------------------------------|
    
    E|---------0-2-4-5--5--4--2--|--4----4---5---6---7---7---5---4-|
    B|-4-0-2-4----------------0--|--0------------------------------|
    G|------------------4--4-----|---------------------------------|
    D|------------------4--2--1--|--2--2---4---5---6---6---4---2---|
    A|-2-------------------------|---------------------------------|
    E|---------------------------|---------------------------------|
    
    E|-2--------0-2-4-5--5--4--2-|--4----4---5---6---7---7---5---4-|
    B|----0-2-3----------------0-|--0------------------------------|
    G|-------------------4--4----|---------------------------------|
    D|-1-----------------4--2--1-|-----2---4---5---6---6---4---2---|
    A|---------------------------|---------------------------------|
    E|---------------------------|--0------------------------------|
    
    E|----2--2--4--2--4--2--4--|--2--11--11--12--11--12--11--12-|
    B|----0--0--0--0--0--0--0--|--0------0---0---0---0---0---0--|
    G|-------------------------|---------11--13--11--13--11--13-|
    D|----------2-----2-----2--|--------------------------------|
    A|-2-----2-----2-----2-----|--2-----------------------------|
    E|-------------------------|--------------------------------|
    
    E|-11--14--17--16--14------------|-----------------------------|
    B|-0-------------------17-16--14-|-12-11-12-13-14-12-10-9-10-7-|
    G|-11----------------------------|-----------------------------|
    D|-------------------------------|-----------------------------|
    A|-------------------------------|-----------------------------|
    E|-------------------------------|-----------------------------|
    
    E|-0-----------0--0-------|---------------------|-0-4-0------5-|
    B|----0-----0--------4--2-|-0-------------0-2-4-|--------4-2-7-|
    G|-------1----------------|----2-----2----------|--------------|
    D|------------------------|-------1-------------|--------------|
    A|------------------------|-------------2-------|----------0---|
    E|-0-----------0----------|---------------------|-----4--------|
    
    E|---------------|--------------------|------------------------|
    B|-9---10-9-7--8-|-9-------9--7-------|----------------------9-|
    G|-9--------8----|---------------9--8-|-6--------------8--9----|
    D|---9------9----|---6---6------------|----6-----6-------------|
    A|---------------|-----6--------------|-------7----------------|
    E|-7-------------|-8-------8----------|-9-----------9----------|
    
    E|----7--------0----------------|-----------------------|
    B|-7--------9-------------4--2--|--2--------------------|
    G|-------7--------6--4----------|------------4--2--1----|
    D|-------------------4----------|-------4-------------4-|
    A|----------7-------------------|-----------------------|
    E|------------------------2-----|-----------------------|
    
    E|-12---------------12--11--9--|-------------------------------|
    B|-----------------------------|--12------------12--12--11--10-|
    G|-9---------------------------|-------------------------------|
    D|-----9------9----------------|-------------------------------|
    A|--------11-------------------|------9------9-----------------|
    E|---------------0-------------|--11-----11-----11-------------|
    
    E|----------------5-|-4-----------2--3-|-4-------------4--6--8-|
    B|-9--7-------------|----0-----0--4--2-|-----------------------|
    G|-------9--8--6--6-|-------3-----4--2-|-5---------------------|
    D|------------------|------------------|-6--1-----1------------|
    A|----------------0-|-2----------------|-------3---------------|
    E|-0----------------|------------------|-------------4---------|
    
    E|-9--11--12-------9----------|-------------------------|
    B|--------9-----------10------|--9-----------------9--7-|
    G|--------9---------------11--|------11--9---------8----|
    D|----------------------------|----------8----9---------|
    A|-0------------0-------------|--11---------------------|
    E|----------------------------|--------------------7----|
    
    E|-------0-6-7-9-7-------0-6-7-9-7-|
    B|-----0---------------0-----------|
    G|---------------------------------|
    D|---6---------------6-------------|
    A|---------------------------------|
    E|-0---------------0---------------|
    
    E|--------2-5-4-2-0-----------------|
    B|------0-----------4-2-0-----------|
    G|----2-------------------2-1-------|
    D|----------------------------4-2-1-|
    A|--2-------------------------------|
    E|----------------------------------|
    
    
    E|-------0-6-7-9-7-------0-6-7-9-7-|
    B|-----0---------------0-----------|
    G|---------------------------------|
    D|---6---------------6-------------|
    A|---------------------------------|
    E|-0---------------0---------------|
    
    E|--------2-5-4-2-0-----------------|
    B|------0-----------4-2-0-----------|
    G|----2-------------------2-1-------|
    D|----------------------------4-2-1-|
    A|--2-------------------------------|
    E|----------------------------------|
    
    E|-------0---4---5---7----9----10----9-|
    B|-----0---5---7---9---10---12----11---|
    G|---1---------------------------------|
    D|-------------------------------------|
    A|-------------------------------------|
    E|-0---------------0-------------------|
    
    E|-----10----9---7---5---4---2---0-----|
    B|--12----10---9---7---5---3---2---0-3-|
    G|-------------------------------------|
    D|-------------------------------------|
    A|-------------------------------------|
    E|-------------0-------0-------0-------|
    
    E|----------0--2--4--5--7--|--9--11--12--11--14--12--11--9-|
    B|-2--2--4-----------------|-------------------------------|
    G|-2-----------------------|-------------------------------|
    D|-------------1--2--4--6--|--7--9---11--10--13--11--9---7-|
    A|----0--2--4--------------|-------------------------------|
    E|-------------------------|-------------------------------|
    
    E|-7--12--11--10--9--8--7--6--|--7--12--16--0--4--4-2-4-2-0-2-|
    B|----------------------------|-------------------------------|
    G|----------------------------|-------------------------------|
    D|-6--------------------------|-------------------------------|
    A|----------------------------|-------------------------------|
    E|----------------------------|-------------------------------|
    
    E|-------0-6-7-9-7-------0-6-7-9-7-|
    B|-----0---------------0-----------|
    G|---------------------------------|
    D|---6---------------6-------------|
    A|---------------------------------|
    E|-0---------------0---------------|
    
    E|--------2-5-4-2-0-----------------|
    B|------0-----------4-2-0-----------|
    G|----2-------------------2-1-------|
    D|----------------------------4-2-1-|
    A|--2-------------------------------|
    E|----------------------------------|
    
    E|-------0-6-7-9-7-------0-6-7-9-7-|
    B|-----0---------------0-----------|
    G|---------------------------------|
    D|---6---------------6-------------|
    A|---------------------------------|
    E|-0---------------0---------------|
    
    E|--------2-5-4-2-0-----------------|
    B|------0-----------4-2-0-----------|
    G|----2-------------------2-1-------|
    D|----------------------------4-2-1-|
    A|--2-------------------------------|
    E|----------------------------------|
    
    E|-------0---4---5---7----9----10----9-|
    B|-----0---5---7---9---10---12----11---|
    G|---1---------------------------------|
    D|-------------------------------------|
    A|-------------------------------------|
    E|-0---------------0-------------------|
    
    E|-----10----9---7---5---4---2---0-----|
    B|--12----10---9---7---5---3---2---0-3-|
    G|-------------------------------------|
    D|-------------------------------------|
    A|-------------------------------------|
    E|-------------0-------0-------0-------|
    
    E|----------0--2--4--5--7--|--9--11--12--11--14--12--11--9-|
    B|-2--2--4-----------------|-------------------------------|
    G|-2-----------------------|-------------------------------|
    D|-------------1--2--4--6--|--7--9---11--10--13--11--9---7-|
    A|----0--2--4--------------|-------------------------------|
    E|-------------------------|-------------------------------|
    
    E|-7----7---9---10----12----14----16----17-|
    B|-----------------------------------------|
    G|-----------------------------------------|
    D|-6--6---7---9----11----12----14----16----|
    A|-----------------------------------------|
    E|-----------------------------------------|
    
    E|--19------------------16--19--19-|
    B|------12--14--16--17-------------|
    G|---------------------------------|
    D|--18-----------------------------|
    A|---------------------------------|
    E|---------------------------------|
    
    E|---------0--4--7--12----------|
    B|-------0--------------12------|
    G|-----1--------------------13--|
    D|---2--------------------------|
    A|-2----------------------------|
    E|------------------------------|
    
    E|--4---2-4-2-4-2-4-2-4-2-4-2-0-2-|
    B|--------------------------------|
    G|--4-----------------------------|
    D|--------------------------------|
    A|--------------------------------|
    E|--------------------------------|
    
    E|-0-----------------------|-----------------7--6--5-|
    B|----0-----0-----5--4--2--|--0----------------------|
    G|-------1-----------------|-----2-----2-------------|
    D|-------------------------|--------1----------------|
    A|-------------------------|--------------2----------|
    E|-0-----------0-----------|-------------------------|
    
    E|-5----4----4--2--4--5--7--9--|--9-------------------|
    B|-----------------------------|-----------------9--7-|
    G|-----------------------------|-------9---------8----|
    D|-----------------------------|-------8----9---------|
    A|-----------0-----------------|----------------------|
    E|-0---------------------------|-----------------7----|
    
    E|-0----------------0--------------|-----------------7--6--5-|
    B|------0-----0--------4--3--2--1--|--0----------------------|
    G|---------1-----------------------|-----2-----2-------------|
    D|---------------------------------|--------1----------------|
    A|---------------------------------|--------------2----------|
    E|-0-------------0-----------------|-------------------------|
    
    E|-5----4-------2--4--5--7--9--|--9----0--------------|
    B|-----------------------------|------------0----9--7-|
    G|-----------------------------|-----------------8----|
    D|-----------------------------|-------8--------------|
    A|-----------0-----------------|----------------------|
    E|-0---------------------------|-----------------7----|
    
    E|-------0----2--------0----11--|--------0----2--------0----11-|
    B|-----0------0------0---0--10--|------0------0------0---0--10-|
    G|---1-------------1--------11--|----1-------------1--------11-|
    D|---------1-----2--------------|----------1-----2-------------|
    A|------------------------------|------------------------------|
    E|-0----------------------------|--0---------------------------|
    
    E|----0--4--7--12-----------|-------0----0--|------------------|
    B|--------------------------|-------0----0--|------------------|
    G|--------------------------|-------1----1--|------------------|
    D|-----------------2--------|--2----2----2--|--9--------7----6-|
    A|--------------------2-----|-------2----2--|------------------|
    E|-0---------------------4--|--0----0----0--|--7--------5----4-|
    
    E|-------------------|---------------------|-------------|
    B|-------------------|---------------------|-------------|
    G|-------------------|---------------------|-------------|
    D|-4--------2--------|--9--------7----6----|--4--------3-|
    A|-------------------|---------------------|-------------|
    E|-2--------0--------|--7--------5----4----|--2--------1-|
    
    E|-----------------|------------------|-4--2--0----------------|
    B|-----------------|------------------|-6--3--2--3--2--0-------|
    G|-7--------6----4-|------------------|----------4--2--1--2--1-|
    D|-----------------|-7----6----4----3-|-------------------4--3-|
    A|-5--------4----2-|------------------|------------------------|
    E|-----------------|-5----4----2----1-|------------------------|
    
    E|--------------------------------|
    B|--------------------2---2---2---|
    G|-2------------------------------|
    D|------4---4---4---4---4---4---4-|
    A|----0-------0-------0-------0---|
    E|-2------2-------2-------2-------|
    
    E|----------------------------------|
    B|--3-------2-----------2---2---0---|
    G|----1---1---1---1---1---1---1---1-|
    D|------3-------3-------3-------3---|
    A|----------------------------------|
    E|--1-------1-------1-------1-------|
    
    E|---------------------------------|
    B|---------------------2---2---2---|
    G|-2-------------------------------|
    D|---4---4---4---4---4---4---4---4-|
    A|-----0-------0-------0-------0---|
    E|-2-------2-------2-------2-------|
    
    E|---------------------4-2-0-------|
    B|--3-------2----------------3-2-0-|
    G|----1---1---1---1----------------|
    D|------3-------3------------------|
    A|---------------------------------|
    E|--1-------1-------1--------------|
    
    E|---------------------------------|
    B|---------------------2---2---2---|
    G|-2-------------------------------|
    D|---4---4---4---4---4---4---4---4-|
    A|-----0-------0-------0-------0---|
    E|-2-------2-------2-------2-------|
    
    E|----------3-----------0-----------|
    B|--2-----------------------3---2---|
    G|----------------------------------|
    D|----2---2---2---2---2---2---2---2-|
    A|------0-------0-------0-------0---|
    E|--0-------0-------0-------0-------|
    
    E|---------------------------------|
    B|-3-------------------3---3---3---|
    G|---------------------------------|
    D|---0---0---0---0---0---0---0---0-|
    A|-----0-------0-------0-------0---|
    E|-2-------2-------2-------2-------|
    
    E|----------2-----------------------|
    B|--2-------------------5---3---2---|
    G|----3---3---3---3---3---3---3---3-|
    D|------4-------4-------4-------4---|
    A|----------------------------------|
    E|--2-------2-------2-------2-------|
    
    E|---------------------------------|
    B|-3-------0-----------0---2---3---|
    G|---------------------------------|
    D|---0---0---0---0---0---0---0-----|
    A|-----2-------2-------2-------2-4-|
    E|-2-------2-------2-------2-------|
    
    E|----------2----------5-3-2-0-----|
    B|--2--------------------------3-2-|
    G|----3---3---3---3----------------|
    D|------4-------4------------------|
    A|---------------------------------|
    E|--2-------2-------2--------------|
    
    E|---------------------------------|
    B|-0-------------------0---0---0---|
    G|---------------------------------|
    D|---0---0---0---0---0---0---0---0-|
    A|-----2-------2-------2-------2---|
    E|-2-------2-------2-------2-------|
    
    E|----------------------------------|
    B|--3-------1-----------3-1-0---1---|
    G|----------------------------------|
    D|----0---0---0---0---0---0---0---0-|
    A|------0-------0-------0-------0---|
    E|--2-------2-------2-------2-------|
    
    E|---------------------3-----------|
    B|-0-------3---------------3---0---|
    G|---------------------------------|
    D|---0---0---0---0---0---0---0---0-|
    A|-----2-------2-------2-------2---|
    E|-3-------3-------3-------3-------|
    
    E|---------------------5-3-2-0-----|
    B|--3-------1------------------3-1-|
    G|---------------------------------|
    D|----0---0---0---0----------------|
    A|------0-------0------------------|
    E|--2-------2-------2--------------|
    
    E|---------------------------------|
    B|-0-------------------0---0---0---|
    G|---------------------------------|
    D|---0---0---0---0---0---0---0---0-|
    A|-----2-------2-------2-------2---|
    E|-3-------3-------3-------3-------|
    
    E|----------2-----------------------|
    B|--0-------------------0---0---0---|
    G|----2---2---2---2---2---2---2---2-|
    D|------1-------1-------1-------1---|
    A|----------------------------------|
    E|--2-------2-------2-------2-------|
    
    E|---------3-----------------------|
    B|-0-------------------0---0---0---|
    G|---1---1---1---1---1---1---1---1-|
    D|-----2-------2-------2-------2---|
    A|---------------------------------|
    E|-0-------0-------0---------------|
    
    E|----------3-----------3-1-0-------|
    B|--0-------------------------3-1-0-|
    G|----0---0---0---0---0---0---0---0-|
    D|------0-------0-------0-------0---|
    A|----------------------------------|
    E|--1-------1-------1-------1-------|
    
    E|----3-3-3-3-3-3-3-3---3---3---3-|
    B|-1----------------------3---5---|
    G|--------------------5-----------|
    D|--------------------------------|
    A|--------------------------------|
    E|-0------------------------------|
    
    E|----3---3---3---3---3---3---3---3-|
    B|--3-------------------------------|
    G|------5---4---2---0---------------|
    D|----------------------3---2---0---|
    A|----------------------------------|
    E|----------------------------------|
    
    E|-3--0-0-0-0-0-0-0-0---0---0---0-|
    B|-1----------------------0---1---|
    G|-0------------------2-----------|
    D|-2------------------------------|
    A|-3------------------------------|
    E|--------------------------------|
    
    E|----0---0---0---0---0---0---0---0-|
    B|--0-------------------------------|
    G|------2---1-----------------------|
    D|--------------3---2---0-----------|
    A|--------------------------3---2---|
    E|----------------------------------|
    
    E|-0--5-5-5-5-5-5-5-5---5---5---5-|
    B|-1------------------------------|
    G|-2------------------------------|
    D|-2--------------------------2---|
    A|-0------------------0---3-------|
    E|--------------------------------|
    
    E|----5-5-5---5-5-5-5-5---5---5---5-|
    B|----------------------------------|
    G|----------2-----------------------|
    D|--3---------------------------3---|
    A|----------------------0---3-------|
    E|----------------------------------|
    
    E|---5-5-5---5-5-5-5-5---5---5---5-|
    B|---------------------------------|
    G|---------2-----------------------|
    D|-2---------------------------2---|
    A|---------------------0---3-------|
    E|---------------------------------|
    
    E|----5-5-5---5-5-5-5-5---5---5---5-|
    B|----------------------------------|
    G|----------------------------------|
    D|----------7-----------------------|
    A|--6-------------------8---7---6---|
    E|----------------------------------|
    
    E|----------------9-11-12--0--0--0--|
    B|--------9-10-12----------0--1--3--|
    G|---9-11------------------1--2--4--|
    D|----------------------------------|
    A|----------------------------------|
    E|-0-----------------------0--0--0--|
    
    E|--0----------10-12-14-16-17--0--0--0-|
    B|--1-10-12-13-----------------1--3--1-|
    G|--2-----------------------------4--2-|
    D|-------------------------------------|
    A|--0--------------------------0--0--0-|
    E|-------------------------------------|
    
    E|----------------9-11-12--0--0--0--|
    B|--------9-10-12----------0--1--3--|
    G|---9-11------------------1--2--4--|
    D|----------------------------------|
    A|----------------------------------|
    E|-0-----------------------0--0--0--|
    
    E|--0----------10-12-14-16-17--0--0--0-|
    B|--1-10-12-13-----------------1--3--1-|
    G|--2-----------------------------4--2-|
    D|-------------------------------------|
    A|--0--------------------------0--0--0-|
    E|-------------------------------------|
    
    E|-0--0--0--0--0--11--12--11--|--12-----------4--5--7--9-|
    B|-0--1--0--1--0--10--9---10--|--9---4--5--7-------------|
    G|-1--2--1--2--1--------------|--9------------1--2--4--6-|
    D|----------------------------|------1--2--4-------------|
    A|----0-----0-----------------|--------------------------|
    E|-0-----0-----0--------------|--0-----------------------|
    
    E|-10----9---10---9---10---9---10---9-|
    B|------------------------------------|
    G|-7---6---7----6---7----6---7----6---|
    D|------------------------------------|
    A|------------------------------------|
    E|------------------------------------|
    
    E|--7----5---7---5---7---5---7---5-|
    B|---------------------------------|
    G|---------------------------------|
    D|--9--7---9---7---9---7---9---7---|
    A|---------------------------------|
    E|---------------------------------|
    
    E|---4---3---4---2---0-------0---1-|
    B|-----------------------4---------|
    G|-1---0---1-----------------------|
    D|-------------4---2---1---2---3---|
    A|---------------------------------|
    E|---------------------------------|
    
    E|----2---1---0---------------------|
    B|----------------4---3---2---1---0-|
    G|----------------------------------|
    D|--4---3---2---1---0---------------|
    A|----------------------4---3---2---|
    E|----------------------------------|
    
    E|-----------------------------|-----------------------|
    B|-----------------------------|-----------------------|
    G|---3---2---1---0-------------|-------------------0-1-|
    D|-------------------4---3-----|-----2---------3-4-----|
    A|-1---0-----------------------|-----------------------|
    E|---------4---3---2---1-------|--0--------------------|
    
    E|-------------------------|--------------------------|
    B|-------------------------|--------------------------|
    G|-2--------------2--1-----|-----------------------1--|
    D|----2-----2-----------4--|--2--------------2--4-----|
    A|-0-----4-----0-----------|-----2-----2--------------|
    E|-------------------------|--------4-----0-----------|
    
    E|---------------------|-----------------------|
    B|-----2-------------3-|-2-------3-2-0----1----|
    G|--2-----2--1-------4-|-2---------------------|
    D|--------------4------|------2----------------|
    A|--0-----------5------|-0---------------------|
    E|---------------------|------0----------------|
    
    E|--------------------------|-------------------------|
    B|--2--------------0--------|-----------------------2-|
    G|-----1-----1--------2--1--|-----------------1--2----|
    D|--------3-----------------|--4----------------------|
    A|--------------4-----------|-----4-----4-------------|
    E|--------------------------|--------5-----2----------|
    
    E|-------0----------------------|-----------------------|
    B|-0--4-----2-------------------|-----------------------|
    G|-------------2----------1-----|-----------------------|
    D|----------------4--2-------4--|-------1----2--0-------|
    A|----------0--------2----2-----|--2---------------4--2-|
    E|-4----------------------------|------------0----------|
    
    E|-5--------------5--4--2--|--0--------------0--2--4-|
    B|-------------------------|-------------------------|
    G|-2-----------------------|-------------------------|
    D|----2-----2--------------|--2----------------------|
    A|-0-----4-----0-----------|-----2-----2-------------|
    E|-------------------------|--------4-----0----------|
    
    E|-5--7--9--5--------10----|--9-------10-9-7----8-|
    B|-------------7-----------|---------------0------|
    G|----------------7--------|----------------------|
    D|-------------0-----------|----------------------|
    A|-0-----------------------|--0-------------------|
    E|-------------------------|-------0--------------|
    
    E|-9--------------9--11--13--|--14--16--17-------14---------|
    B|---------------------------|-----------------------15--12-|
    G|-6-------------------------|------------------------------|
    D|----6-----6----------------|----------------0-------------|
    A|-------8-------------------|------------------------------|
    E|-------------9-------------|------------------------------|
    
    E|--------------------9--7--|
    B|-14--12--10---------------|
    G|---------8-----9----6-----|
    D|---------7----------9-----|
    A|--------------------------|
    E|--------------------0-----|
    
    E|--------0-11-12-14-12-------0-11-12-14-12-|
    B|------------------------------------------|
    G|------6-------------------6---------------|
    D|----7-------------------7-----------------|
    A|--0-------------------0-------------------|
    E|------------------------------------------|
    
    E|---------10-9-7--------------------|
    B|-----0----------10-9-7-------------|
    G|-------7---------------9-7-6-------|
    D|---6-------------------------9-7-6-|
    A|-----------------------------------|
    E|-0---------------------------------|
    
    E|-------0-11-12-14-12-------0-11-12-14-12-|
    B|-----------------------------------------|
    G|-----6-------------------6---------------|
    D|---7-------------------7-----------------|
    A|-0-------------------0-------------------|
    E|-----------------------------------------|
    
    E|---------10-9-7--------------------|
    B|-----0----------10-9-7-------------|
    G|-------7---------------9-7-6-------|
    D|---6-------------------------9-7-6-|
    A|-----------------------------------|
    E|-0---------------------------------|
    
    E|-------0----9----10----12----14----15----14-|
    B|---------10---12----14----15----17----16----|
    G|-----6--------------------------------------|
    D|---7----------------------------------------|
    A|-0------------------------------------------|
    E|--------------------------------------------|
    
    E|----16----14----12----10----9---7---5---4-|
    B|-17----15----14----12----10---9---7---5---|
    G|------------------------------------------|
    D|------------------------------------------|
    A|-------------0-----------0--------0-------|
    E|------------------------------------------|
    
    E|--2--2--4--5--7--9--10--12-|
    B|--3------------------------|
    G|---------------------------|
    D|-----0--2--4--6--7--9---11-|
    A|---------------------------|
    E|---------------------------|
    
    E|-14--16--17--16--17--16--17--14--|
    B|---------------------------------|
    G|---------------------------------|
    D|-12--14--16--15--16--15--16--12--|
    A|---------------------------------|
    E|---------------------------------|
    
    E|--12--17--16--15--14--13--12--11-|
    B|---------------------------------|
    G|---------------------------------|
    D|--11-----------------------------|
    A|---------------------------------|
    E|---------------------------------|
    
    E|-12--17--12--9--9------9----------|
    B|-------------------12----12-10-12-|
    G|----------------------------------|
    D|----------------------------------|
    A|----------------------------------|
    E|----------------0-----------------|
    
    E|--------0-11-12-14-12-------0-11-12-14-12-|
    B|------------------------------------------|
    G|------6-------------------6---------------|
    D|----7-------------------7-----------------|
    A|--0-------------------0-------------------|
    E|------------------------------------------|
    
    E|---------10-9-7--------------------|
    B|-----0----------10-9-7-------------|
    G|-------7---------------9-7-6-------|
    D|---6-------------------------9-7-6-|
    A|-----------------------------------|
    E|-0---------------------------------|
    
    E|-------0-11-12-14-12-------0-11-12-14-12-|
    B|-----------------------------------------|
    G|-----6-------------------6---------------|
    D|---7-------------------7-----------------|
    A|-0-------------------0-------------------|
    E|-----------------------------------------|
    
    E|---------10-9-7--------------------|
    B|-----0----------10-9-7-------------|
    G|-------7---------------9-7-6-------|
    D|---6-------------------------9-7-6-|
    A|-----------------------------------|
    E|-0---------------------------------|
    
    E|-------0----9----10----12----14----15----14-|
    B|---------10---12----14----15----17----16----|
    G|-----6--------------------------------------|
    D|---7----------------------------------------|
    A|-0------------------------------------------|
    E|--------------------------------------------|
    
    E|----16----14----12----10----9---7---5-0-3-|
    B|-17----15----14----12----10---8---7-------|
    G|------------------------------------------|
    D|------------------------------------------|
    A|-------------0-----------0--------0-------|
    E|------------------------------------------|
    
    E|--2--2--4--5--2--2--4--5-|
    B|--3----------------------|
    G|-------------------------|
    D|-----0--3--4--0--0--3--4-|
    A|-------------------------|
    E|-------------------------|
    
    E|-2--2--4--5--7--5--4--2--|--0----0---2---4---5---7---9---10-|
    B|-------------------------|----------------------------------|
    G|-------------------------|----------------------------------|
    D|-0--0--3--4--6--4--2--0--|---------0---2---4---6---7---9----|
    A|-------------------------|--4--4----------------------------|
    E|-------------------------|----------------------------------|
    
    E|-12--0-------------9--12-12-|-----------0-5-9-12--17---------|
    B|------------9--10-----------|---------2---------------17-----|
    G|--------11------------------|-------2---------------------18-|
    D|-11-------------------------|-----2--------------------------|
    A|----------------------------|---0----------------------------|
    E|----------------------------|-0------------------------------|
    
    E|-9--9-7-9-7-9-7-9-7-9-7-9-7-5-7-|--5--0-----0-----5--4--2-|
    B|--------------------------------|--------2----------------|
    G|--------------------------------|-------------------------|
    D|--------------------------------|-------------------------|
    A|--------------------------------|--0-----------0----------|
    E|-0------------------------------|-------------------------|
    
    E|-0-----------0--12--11--10-|--10----9-------7--9--10--12--14-|
    B|----0-----0----------------|---------------------------------|
    G|-------1-------------------|---------------------------------|
    D|---------------------------|-------------0-------------------|
    A|---------------------------|--0------------------------------|
    E|-------------0-------------|---------------------------------|
    
    E|-14----------------9--7--|------0-----0-----5--4--3--2--1-|
    B|-------------------9-----|--10-----2----------------------|
    G|-------14----------------|--------------------------------|
    D|-------13----14----------|--------------------------------|
    A|-------------------------|--0------------0----------------|
    E|-------------------0-----|--------------------------------|
    
    E|-0-----------0--14--12--10-|--10----9----9--7--9--10--12--14-|
    B|---------------------------|---------------------------------|
    G|----1-----1----------------|---------------------------------|
    D|-------2-------------------|--12----11---0-------------------|
    A|---------------------------|--0------------------------------|
    E|-------------0-------------|---------------------------------|
    
    E|-14----------------9--7--|--------0----0--------0----12-|
    B|-------------------------|------2------3------2------15-|
    G|-------14----------6-----|----2--------4----2--------13-|
    D|-------13----14----9-----|------------------------------|
    A|-------------------------|--0-------------0-------------|
    E|-------------------0-----|----------4-------------0-----|
    
    E|-------0----0--------0----12--|
    B|-----2------3------2------15--|
    G|---2--------4----2--------13--|
    D|------------------------------|
    A|-0-------------0--------------|
    E|---------4-------------0------|
    
    E|---------9---12--17-------------------|
    B|--------------------------------------|
    G|-----14----------14-----14------------|
    D|---------11--14---------------14---11-|
    A|--0--12--------------12---------------|
    E|---------------------------12----9----|
    
    E|----------5----5----|--5-|
    B|--------------------|----|
    G|----------6----6----|--6-|
    D|-7--------7----7----|--7-|
    A|-0--------0----0----|--7-|
    E|--------------------|--5-|…
  • *ВСЕ ДВОЙНЫЕ ТРЕЛИ БУДУТ ОБОЗНАЧАТЬСЯ(*DTR.*)
    
    E||-----------2----3----|----------------------------|
    B||--5------------------|----1---1---1---1---1---1---|
    G||---------------------|--4---4---4---4---4---4-----|
    D||--2--------4----5----|----------------------------|
    A||---------------------|--2h3p2h3p2h3p2h3p2h3p2h3p2-|
    E||--0--------2----3----|----------------------------|
    
    E|-3--------5----7----|----0---0---0---0---0---0---|
    B|--------------------|--3---3---3---3---3---3-----|
    G|--------------------|----------------------------|
    D|-5--------7----9----|--0h2p0h2p0h2p0h2p0h2p0h2p0-|
    A|--------------------|----------------------------|
    E|-3--------5----7----|----------------------------|
    
    E|---------------------------------|
    B|-13----12-10-8----------------13-|
    G|-------------0-11-9-8------------|
    D|-10----9--7-----------10-9-7--10-|
    A|---------------9--7-6------0-----|
    E|----------------------8--7-------|
    
    E|-------------------------------|-----------------------------|
    B|-12----10-8-7---------------12-|-10----8-7-5-4-8-----7-5-----|
    G|----------0---9-7--------0-----|-------0-----------------5-3-|
    D|-9----------4-----10-9-7----9--|-7---------------------------|
    A|-------0------7-5------0-------|---------9-7-6-10----9-7-3-1-|
    E|------------------8--7---3-----|-----------------------------|
    
    (*DTR.*)…
  • Обозначения:
    пальцы правой руки над табом      i - Указательный
                                      m - Средний
    
    пальцы левой руки над табом       1 - Указательный
                                      2 - Средний…
  • Размер: 3/4
    
    1
    E|--------------------|--------------------|-------------------|
    B|--------------------|--------------------|-------------------|
    G|--------------------|-----------7--6⁄⁄4--|--2--------2--4//6-|
    D|-----------7--6⁄⁄4--|--2-----------------|-------------------|
    A|--------------------|--------------------|-----0-------------|
    E|--------------------|-----0--------------|-------------------|
    
    4
    E|--------------------|--------------------|-----------10-9⁄⁄7-|
    B|--------------------|-----------10-9⁄⁄7--|--5----------------|
    G|--4-----------------|--------------------|-------------------|
    D|-----------7--4⁄⁄1--|--2-----------------|-------------------|
    A|-----2--------------|--------------------|-------------------|
    E|--------------------|-----0--------------|-----0-------------|
    
    7
    E|--5--------5--7//9--|--7-----------------|--------------5--4-|
    B|--------------------|-----------10-7⁄⁄4--|--5--------5-------|
    G|--------------------|--------------------|-------------------|
    D|--------------------|--------------------|-------------------|
    A|-----0--------------|--------------------|-------------------|
    E|--------------------|-----7--------------|-----0-------------|
    
    10
    E|-----2--------------|--------------4--2--|-------------------|
    B|-----------5--3--2--|--------------------|-----5-----3⁄⁄2--0-|
    G|--------------------|-----4-----4--------|-------------------|
    D|--0-----------------|--------------------|-------------------|
    A|--------------------|--------------------|--4----------------|
    E|--------------------|--4-----------------|-------------------|
    
    13
    E|--------------2-----|--------------------|-----------0-------|
    B|-----------------5--|-----3-----2--------|--------0-----3--0-|
    G|-----2-----2--------|--------------4--2--|-----1-------------|
    D|--------------------|--------------------|-------------------|
    A|--------------------|--2-----------------|-------------------|
    E|--2-----------------|--------------------|--0----------------|
    
    16
    E|--------5-----------|--------7-----------|-------7-----------|
    B|-----------7--------|-----9-----9--10----|----9-----9--10----|
    G|-----6--------9--8--|--9--------------11-|-9--------------11-|
    D|--------------------|--------------9-----|-------------9-----|
    A|--------------------|--------------------|-------------------|
    E|--5-----------7-----|--0-----------------|-0-----------------|
    
    19
    E|--0-----0-----2-----|--0-----2--0--------|-------------------|
    B|-----4-----4-----4--|-----4--------4--3--|--2--1--0----------|
    G|--------------------|--------------------|-------------------|
    D|--------------------|--------------------|-----------7--6--4-|
    A|--------------------|--------------------|-------------------|
    E|--0-----------------|--------------------|-------------------|
    
    22
    E|--------------------|--------------------|-------------------|
    B|--------------------|--------------------|-------------------|
    G|-----------7--6--4--|--2--------2--4--6--|--4----------------|
    D|--2-----------------|--------------------|-----------7--4--1-|
    A|--------------------|-----0--------------|-----2-------------|
    E|-----0--------------|--------------------|-------------------|
    
    25
    E|--------------------|-----------10-9--7--|--5--------5--7//9-|
    B|-----------10-9--7--|--5-----------------|-------------------|
    G|--------------------|--------------------|-------------------|
    D|--2-----------------|--------------------|-------------------|
    A|--------------------|--------------------|-----0-------------|
    E|-----0--------------|-----0--------------|-------------------|
    
    28
    E|--------10----------|-----9--12-9--10----|----9--12-9--10----|
    B|-----------12-10-9--|--10-------------12-|-10-------------12-|
    G|-----11-------------|--------------------|-------------------|
    D|--0-----------------|--------------------|-------------------|
    A|--------------------|--0-----------------|-0-----------------|
    E|--------------0-----|--------------0-----|-------------0-----|
    
    31
    E|--9--------------0--|--------------------|--2-----0-----4-|
    B|-----12-10-9--------|--3--2--0-----------|--3-----2-----3-|
    G|--------------11----|-----------2--1--2--|--2-----2-----4-|
    D|--------------------|--------------------|--0-----2-------|
    A|--0-----------------|--------------------|----------------|
    E|--------------------|--------------------|--------------0-|
    
    34
    E|--------------------|--------------------|-------|
    B|--------------------|--------------------|-------|
    G|--------------------|-----------7--6⁄⁄4--|--2----|
    D|-----------7--6⁄⁄3--|--2-----------------|-------|
    A|--------------------|--------------------|-----0-|
    E|--------------------|-----0--------------|-------|
    
    37
    E|--2-----0-----4-----|--5-|
    B|--3-----2-----3-----|--2-|
    G|--2-----2-----4-----|--2-|
    D|--0-----2-----------|----|
    A|--------------------|--0-|
    E|--------------0-----|----|…
  • E----0-----|--------|---------|---------|----------|
    B-------3--|-1-1--0-|---------|-0-------|----------|
    G----------|--------|-2--1--2-|---------|----------|
    D--2-------|--------|---------|----2--2-|-3--2--0--|
    A----------|-0------|-3-------|---------|----------|
    E----------|--------|---------|-0-------|----------|
    
    
    E----------|-----------|----------|-0---0----------|
    B----------|-----------|----------|-----------3----|
    G----------|-----------|----------|----------------|
    D----------|-----------|-------2--|----------------|
    A--3--3--2-|--0------0-|-2--------|----------------|
    E----------|------4----|----0-----|----------------|
    
    E----------|-------------|-----------|-------------|
    B-1---1--0-|-------------|-0---------|-------------|
    G----------|-2----1---2--|-----------|-------------|
    D----------|-------------|----2---2--|--3--2--0----|
    A-0--------|-3-----------|-----------|-------------|
    E----------|-------------|-0---------|-------------|
    
    E-----------0--|-------0-|---------0-|--0---0------|
    B--------1-----|-----0---|------1----|---------3---|
    G------2-------|---1-----|----2-----.|-------------|
    D--2-----------|---------|----------.|-------------|
    A--------------|---------|-0---------|-------------|
    E--------------|-0-------|-----------|-------------|
    
    E-----------|---------|----------|-----------------|
    B-2---2-----|---------|----------|-----------------|
    G-0------3--|-2--2--0-|----------|-----------------|
    D-----------|---------|-3--0--2--|----3---2--0-----|
    A-0---------|-4-------|----------|-----------------|
    E-----------|---------|----------|-----------------|
    
    E--------0--|---------0--|--------0--|------------||
    B------1----|------0-----|-----1-----|------------||
    G----2------|----1-------|---2-------|------------||
    D-----------|------------|-----------|------------||
    A-----------|------------|-0---------|-0----------||
    E--0--------|-0----------|-----------|------------||…
  • theme 1
    E||--------7--5--|--4--4--------7--5--|--4--4--------------|-----------5-----5-|
    B||--------------|--------7--5--------|--------7--5--5--7--|--9--7--9-----7----|
    G||--------------|--------------------|--------------------|-------------------|
    D||--------------|--------------------|-----------6--------|-------------------|
    A||--------------|--------------------|--------------------|-------------------|
    E||--------------|--------------------|--------------------|-------------------|
    
    --7--5--------7--5--|--4--4--------7--5--|--4--4--------------|
    --------9--7--------|--------7--5--------|--------7--5--5--7--|
    --------------------|--------------------|--------------------|
    --------------------|--------------------|--------------------|
    --------------------|--------------------|--------------------|
    --------------------|--------------------|--------------------|…
Наверх