Аккорды «No Use For A Name»

No Use For A Name
No Use for a Name (или просто NUFAN) панк-рокеры родом из Сан Хосе, Калифорния. В первоначальном составе, образованном в 1987 году, были Tony Sly, Steve Papoutsis, Rory Koff, и Chris Dodge. Звучание группы менялось на протяжении всего карьерного времени, становясь более мягким и популярным звучанием мелодичного панка. Первый релиз группы "Gang Way "состоялся на сборнике Maximum RocknRoll's 1987 Turn it Around. Через год группы выпустал одноименный ЕР на Woodpecker Records. Их второй ЕР "Let 'em… Читать полностью... No Use for a Name (или просто NUFAN) панк-рокеры родом из Сан Хосе, Калифорния. В первоначальном составе, образованном в 1987 году, были Tony Sly, Steve Papoutsis, Rory Koff, и Chris Dodge. Звучание группы менялось на протяжении всего карьерного времени, становясь более мягким и популярным звучанием мелодичного панка. Первый релиз группы "Gang Way "состоялся на сборнике Maximum RocknRoll's 1987 Turn it Around. Через год группы выпустал одноименный ЕР на Woodpecker Records. Их второй ЕР "Let 'em Out" вышел на Slap A Ham Records год спустя. Chris Dodge ушел после релиза этой ЕРихи. Дебютный LP "Incognito" был выпущен в 1990 на New Red Archives. Chris Dodge вернулся на место второго гитариста, и они выпустили второй альбом Don't Miss the Train в 1992 перед тем, как подписаться на Fat Mike's label Fat Wreck Chords в 1993. За этот год состав снова сменился: Додж ушел, и вместо него взяли Robin Pfefer, который стал новым лид.гитаристом, а Слай сфокусировался на пении и стал ритмовым гитаристом. Новый альбом, выпущенный на лэйбле Fat Mike'а, The Daily Grind стал довольно успешным. Ed Gregor заменил ушедшего Robin'а после релиза альбома. В 1995, после релиза их 4 LP Leche Con Carne, Chris Shiflett и Matt Riddle заменили ушедших гитариста Грегоа и басиста Стива. В 1997 после успеха Making Friends группа ушла в мировой тур по США, Европе, Австралии, Канаде и Японии. После выпуска More Betterness! в 1999, Крис Шифлет ушел в Foo Fighters, и на его место взяли Dave Nassie. Два года спустя группа выпустила на лэйбле Fat Wreck Chords концертник Live in a Dive: No Use for a Name и в следующем году выпустила седьмой студийный альбом Hard Rock Bottom. Восьмой (более политический) альбом Keep Them Confused вышел 14 июня 2005. Последний на сегодня, девятый по счету, альбом The Feel Good Record Of The Year вышел 1 апреля 2008. Скрыть...
Популярные аккорды No Use For A Name:
алфавиту | просмотрам | случайно
  • Re
    I spend the day and night
    La
    and  finally realice
    Sol                            Re
    thereґs really nothing going on
    Sol                                Re
    So why should i try to shake means…
  • (1ST SOLO)(0:46)
    
    e-8-10-8--------8-10-8--------------------------------------
    B--------10-6-8--------8-6-8-10-8-6-------------------------
    G-----------------------------------7-7-5-7-9-10------------
    D------------------------------------8----------------------
    A-----------------------------------------------------------
    E-----------------------------------------------------------
    
    (2ND…
  • > MEANS STRUM
    
    INTRO
    (Normally without bass, just cool to play!)
    G]-----------------------------------]    
    D]-----------------------------------]
    A]---0-2---3-7-5-0-2---0-2-5-3-2-0---]x2
    E]-3-----3-----------3-------------3-]
    
    VERSE1
    G]----------------]…
  • Tuning : Standard Tuning
    
    keys,
    
      = slide down
    /  = slide up
    PM = Palm mute
    
                     D
    She's never alone,
                  A                                     B
    because she's scared of what she might say to herself…
  • G-|---------------------------------------------------------------------------|
    D-|----------------------------------------------------------------------------
    A-|---------------------------------------------------------------------------|
    E-|-5-X-X-8…
  • > MEANS STRUM
    
    INTRO & VERSEx4
    G]-------------]
    D]-------------]
    A]----3>----5>-]
    E]-0>----3>----]
    
    CHORUS(still part of intro)x4
    G]---------------------------]
    D]---------------------------]
    A]-7-7-------------3-2-5-3-5-]
    E]-----0-0-0-0-3-5-----------]
    
    VERSEx4
    
    PRE-CHORUSx2
    G]------------------------]
    D]------------------------]
    A]-3>-5>-7>-2>-3>-5>-7>-5-]
    E]------------------------]
    
    CHORUS
    VERSE
    PRE-CHORUS
    
    LITTLE…
  • Intro:
    E:-1111----|
    
    Verse:
    G:----------------------------------------|
    D:----------------------------------------|
    A:-1>----4>--0>--1>-------------------|  X 2
    E:-----2>---------------2>--4>--1>----|
    
    Chorus:
    G:--------------------------|
    D:--------------------------|
    A:--------------------------|
    E:--2>--1>--2>--4>------|
    
    Verse
    Chorus
    
    Under…
  • G-|-------------------------------------------------------------------------
    D-|-------------------------------------------------------------------------
    A-|-------------------------------------------------------------------------
    E-|-6-x-5-x-6-x-5-6-5-6-x-5-x-6-x-5-6-5-6-x-5-x-6-x-5-6-5-6-x-5-x-6-x-5-6-5-
    
    G-|-------------------------------------------------------------------------|
    D-|-------------------------------------------------------------------------|
    A-|-------------------------------------------------------------------------|
    E-|-6-x-5-x-6-x-5-6-5-6-x-5-x-6-x-5-6-5-6-x-5-x-6-x-5-6-5-6-x-5-x-6-x-5-6-5-|
    
    G-|-------------------------------|-----------------------------------------
    D-|-------------------------------|-----------------------------------------
    A-|-------------------------------------------------------------------------
    E-|-6-5-3-5-6-5-6-6-5-5-3-3-5-6-5-|-6-6-5-6-5-3-3-3-3-6-6-5-6-5
    
    G-|-----------|---------------------------------------------------|
    D-|-----------|---------------------------------------------------|
    A-|---------------------------------------------------------------|
    E-|-6-6-5-6-5-|-3-3-3-4-4-4-5-5-5-4-4-4-3-3-3-4-4-4-5-5-5-4-4-4-4-|
    
    G-|-----------------------------------------------------------------
    D-|-----------------------------------------------------------------
    A-|--------------------------------------------6-6-6-6-6-6-6-6----------5-5-5-5-
    E-|-3-3-3-3-3-3-3-3-3-3-3-3-3-3-3-3---------------------6-6-6-6---------
    
    G-|-----------------------------------------------------------------|
    D-|-----------------------------------------------------------------
    A-|--------------------------------------------6-6-6-6-6-6-6-6----------5-5-5-5-|
    E-|-3-3-3-3-3-3-3-3-3-3-3-3-3-3-3-3-------------------6-6-6-6---------|
    
    G-|--------------------------------------------------------------------------------------------------
    D-|---------------------------------------------------------------------------------------------------
    A-|---------------------6-6-6-6-5-5-5-5------------------------6-6-6-6-5-5-5-5-3-3-3-3-
    E-|-3-3-3-3-3-3-3-3----------------------3-3-3-3-3-3-3-3----------------------------------
    
    G-|---------------------------------------------------------------------------------------------|
    D-|---------------------------------------------------------------------------------------------|
    A-|-3-3-3-3------------------------------------------------------------------------------6--|
    E-|------------6-6-6-6-6-6-6-6-5-5-5-5-5-5-5-5-3-3-3-3-3-3-3-3-3-3-3-3---6-|
    
    G-|--------------------------------------------------------------------------------------
    D-|--------------------------------------------------------------------------------------
    A-|---------------------------------------------6-6-6-6-6-6-6-6---------5-5-5-5-
    E-|-3-3-3-3-3-3-3-3-3-3-3-3-3-3-3-3----------------------6-6-6-6----------
    
    G-|--------------------------------------------------------------------------------------|
    D-|---------------------------------------------------------------------------------------|
    A-|--------------------------------------------6-6-6-6-6-6-6-6------------5-5-5-5-|
    E-|-3-3-3-3-3-3-3-3-3-3-3-3-3-3-3-3----------------------6-6-6-6------------|
    
    G-|-----------------------------------------------------------------------------------------------
    D-|------------------------------------------------------------------------------------------------
    A-|----------------------6-6-6-6-5-5-5----------------------6-6-6-6-5-5-5-5-3-3-3-3-
    E-|-3-3-3-3-3-3-3-3-------------------3-3-3-3-3-3-3-3-----------------------------------
    
    G-|--------------------------------------------------------------------------------------------
    D-|--------------------------------------------------------------------------------------------
    A-|-3-3-3-3------------------------------------------------------------------------------6--
    E-|------------6-6-6-6-6-6-6-6-5-5-5-5-5-5-5-5-3-3-3-3-3-3-3-3-3-3-3-3---6-
    
    G-|-------------------------------------------------------------|
    D-|-------------------------------------------------------------|
    A-|--8--8--8--8--8--8--8--8--8--8--8--8--8--8--8---8-|
    E-|-------------------------------------------------|------------
    
    G-|-------------------------------------------------------------------------------
    D-|-------------------------------------------------------------------------------
    A-|-5-5-5-5-3-3-3-3------------------------5-5-5-5--8--8--8--8-8-----
    E-|-----------------------6-6-6-6-6-6-6-6-------------------------------6-6-6-6-6-6-6-6-
    
    G-|------------------------------------------------------------------|
    D-|------------------------------------------------------------------|
    A-|-5-5-5-5-3-3-3-3-----------------------3-3-3-3-3-3-3-3-|
    E-|-----------------------6-6-6-6-6-6-6-6-------------------------|
    
    G-|--------------------------------------------------------------------
    D-|--------------------------------------------------------------------
    A------------------------------------------------------------------------------------------
    E-|-5-5-5-3-5-6-5-6-5-3-1-5-5-5-3-5-6-5-6--8-6-5-5-5-5-3-5-6-5-6-5-3-1-
    
    G-|------------------------|--------------------------------------------
    D-|------------------------|-8-7-8-7-5------------------------------
    A-|--|------------------------------------------------------------------
    E-|-5-5-5-3-5-6-5-6--8-6-5-|------------------------------------
    
    G-|---------------------------------------------------|
    D-|---------------------------------------------------|
    A-|----------------------------------------------------
    E-|-3-3-3-4-4-4-5-5-5-4-4-4-3-3-3-4-4-4-5-5-5-4-4-4-4-|
    
    G-|-------------------------------------------------------------------------------------
    D-|--------------------------------------------------------------------------------------
    A-|--------------------------------------------6-6-6-6-6-6-6-6-------------5-5-5-5-
    E-|-3-3-3-3-3-3-3-3-3-3-3-3-3-3-3-3-----------------------6-6-6-6---------
    
    G-|-----------------------------------------------------------------|
    D-|------------------------------------------------------------------|
    A-|---------------------------------------------6-6-6-6-6-6-6-6-------------5-5-5-5-|
    E-|-3-3-3-3-3-3-3-3-3-3-3-3-3-3-3-3----------------------6-6-6-6---------|
    
    G-|------------------------------------------------------------------------------------------------
    D-|------------------------------------------------------------------------------------------------
    A-|---------------------6-6-6-6-5-5-5-5-----------------------6-6-6-6-5-5-5-5-3-3-3-3-
    E-|-3-3-3-3-3-3-3-3---------------------3-3-3-3-3-3-3-3-------------------------
    
    G-|---------------------------------------------------------------------------------------------
    D-|---------------------------------------------------------------------------------------------
    A-|-3-3-3-3------------------------------------------------------------------------------6--
    E-|------------6-6-6-6-6-6-6-6-5-5-5-5-5-5-5-5-3-3-3-3-3-3-3-3-3-3-3-3---6-
    
    G-|-------------------------------------------------|
    D-|-------------------------------------------------------------|
    A-|--8--8--8--8--8--8--8--8--8--8--8--8--8--8--8--8-|
    E-|-------------------------------------------------|
    
    G-|---------------------------------------------------------------------
    D-|--------------------------------------------------------------------------
    A-|-5-5-5-5-3-3-3-3--5-5-5-5-----------------------8--8--8--8-8-8-8-8-8-8-8-8-
    E-|-----------------------------------6-6-6-6-6-6-6-6-----------------------------------6-6-6-6-6-6-6-6-
    
    G-|---------------------------------------------------|
    D-|--------------------------------------------
    A-|-5-5-5-5-3-3-3-3--------------------3-3-3-3-3-3-3-3-5-|
    E-|----------------------6-6-6-6-6-6-6-6-------------------|
    
    G-|-----------------|------------------------------------------------------
    D-|------------------------|-------------------------------------------------
    A-|-3-3-3-3-6-6-6-6-|------5-5--------------------------------------------8--8-
    E-|-----------------------|-3-3-----6-6-6-6-6-6-6-6--6-6-6-6-6-6-6-6--------8--8-
    
    G-|--------------------------------------------------------------------------------------------
    D-|------------------------------------------------------------------------------------------
    A-|-----------------------------5-5---------------------------------------------8--8-----
    E-|--8--8--8--8--8--8--3-3-----6-6-6-6-6-6-6-6--6-6-6-6-6-6-6-6--------8--8-
    
    G-|---------------------------|
    D-|---------------------------|
    A-|-------------------------5-|
    E-|--8--8--8--8--8--8----|
    
    G-|-----------------------------------------------------------------------------------------|
    D-|-----------------------------------------------------------------------------------------|
    A-|-----------------------------------------------------------------------------------------|
    E-|-6-6-5-6-5-3-3-3-3-6-6-5-6-5-3-3-3-3-6-6-5-6-5-3-3-3-3-6-6-5-6-5-|
    
    G-|----------------------------------------------------------------------|
    D-|----------------------------------------------------------------------|
    A-|----------------------------------------------------------------------|
    E-|-3-3-3-4-4-4-5-5-5-4-4-4-3-3-3-4-4-4-5-5-5-4-4-4-4-|…
  • G-|----------------------------------------------------------------|
    D-|----------------------------------------------------------------|
    A-|-2-4-4----2-4-4--2-4-4------------2-4-4---2-4-4---2-4-4---------|
    E-|-------5-------5---------5-2-2-2--------5-------5-------5-2-2-2-|
    
    G-|-------------------------------------------------|-----------------------|
    D-|-------------------------------------------------------------------------|
    A-|-4-4-2-2---------------------------------2-2-2-2-|-4-4-2-4-4-2-4-4-2-4-4-|
    E-|---------5-5-4-4-2-2-2-2-4-4-4-4-5-5-5-5---------|-----------------------|
    
    G-|-----------------------------------------------------------------|
    D-|-----------------------------------------------------------------|
    A-|-----------------2-2-2-2-2-2-2-2-4-4-4-4-4-4-4-4-4-4-4-4-4-4-4-4-|
    E-|-5-5-5-5-5-5-5-5-------------------------------------------------|
    
    G-|--------------------|-------------------------------------------------
    D-|--------------------|-------------------------------------------------
    A-|--------------------|-4-4-4-4---------------------6-6-4-4-4-4---------
    E-|-2-2-4-4-5-5-7-5-7--|---------4-4-4-4-5-5-5-5-----------------4-4-4-4-
    
    G-|-----------------|
    D-|-----------------|----------------------|
    A-|---------7-7-6-6-|----------------------|
    E-|-5-5-5-5---------|----------------------|
    
    G-|-------------------------------------|
    D-|----1--------------------------------|
    A-|-4-5--8-7-4-5--8-7-4---4---4----------
    E-|---------------------5---5---5-2-2-2-|
    
    G-|-----------------------------------------------------------------|
    D-|-----------------------------------------------------------------|
    A-|-2-4-4---2-4-4----2-4-4------------2-4-4---2-4-4---2-4-4---------|
    E-|-------5-------5----------5-2-2-2--------5-------5-------5-2-2-2-|
    
    G-|-------------------------------------------------|-----------------------|
    D-|--------------------------------------------------------------------------
    A-|-4-4-2-2---------------------------------2-2-2-2-|-4-4-2-4-4-2-4-4-2-4-4-|
    E-|---------5-5-4-4-2-2-2-2-4-4-4-4-5-5-5-5---------|-----------------------|
    
    G-|-----------------------------------------------------------------|
    D-|-----------------------------------------------------------------|
    A-|-----------------2-2-2-2-2-2-2-2-4-4-4-4-4-4-4-4-4-4-4-4-4-4-4-4-|
    E-|-5-5-5-5-5-5-5-5-------------------------------------------------|
    
    G-|-------------------|-------------------------------------------------
    D-|-------------------|-------------------------------------------------
    A-|-------------------|-4-4-4-4----------------7-7-6-6-4-4-4-4-6-6-6-6-
    E-|-2-2-4-4-5-5-7-5-7-|--------4-4-4-4-5-5-5-5--------------------------
    
    G-|---------------------------------
    D-|---------------------------------
    A-|------------7-7-6-6--------------
    E-|-5-5-5-5-------------------------
    
    G-|---------------------|
    D-|----------------------
    A-|-4-5--8-7-4-5--8-7-4-|
    E-|---------------------|…
  • Intro
    |-------|------|------|------|
    |-------|------|------|------|
    |-----8x|----8x|----8x|----8x|  2nd time, just play full power chords
    |-------|------|---8--|------|
    |---10--|---6--|-6----|---8--|
    |-8-----|-4----|------|-6----|…
  • G-|---------------------------------------------------------------------
    D-|---------------------------------------------------------------------
    A-|-7-7-7-7-5-5-5-5-3-3-3-3-5-5-5-5-2-2-2-2-3-3-3-3-2-------------------
    E-|----------------------------------------------------0-0-0-0-0-0-0-0--
    
    G-|-----------------------------------------------------------------------
    D-|-----------------------------------------------------------------------
    A-|-7-7-7-7-5-5-5-5-3-3-3-3-5-5-5-5-2-2-2-2-3-3-3-3-7-7-7-7-7-7-7-7------|
    E-|-----------------------------------------------------------------5-5--|
    
    G-|-----------------------------------------------------------------
    D-|-----------------------------------------------------------------
    A-|-----------------------------------------------------------------
    E-|-x-7-x-7-x-7-x-7-x-7-x-7-x-7-5-5-x-3-x-3-x-3-x-3-x-3-x-3-x-3-5-5-
    
    G-|-------------------------------------------------------------------------|
    D-|-------------------------------------------------------------------------|
    A-|-------------------------------------------------------------------------
    E-|-x-7-x-7-x-7-x-7-x-7-x-7-x-7-5-5-x-3-x-3-x-3-x-3-x-3-x-3-x-3-5-5-5-5-5-5-|
    
    G-|----------------------------------------------------------------------|
    D-|-----------------------------------------------------------------
    A-|-7-7-7-7---------5-5-5-5---------7-7-7-7---------5-5-5-5----7-7-7-7-7--|
    E-|---------3-3-3-3---------5-5-5-5---------3-3-3------------5------------|
    
    G-|-----------------------|------------------------------------------------------
    D-|-----------------------|--------------------------------------------------
    A-|-----------------------|-3-3-3-3-3-3-3-3-5-5-5-5-5-5-5-5------------------
    E-|-2-2-2-2-5-4-0-0-0-0-0-|----------------------------------5-5-5-5-5-5-5-5-
    
    G-|-----------------------------------------------------|
    D-|----------------------------------------------------------|
    A-|-7-7-7-7-7-7-7-7-3-3-3-3-3-3-3-3-5-5-5-5-|
    E-|--------------------------------------------------------|
    
    G-|-----------------------------------------------------------------
    D-|-----------------------------------------------------------------
    A-|------------------------------------------------------------------------------------
    E-|-x-7-x-7-x-7-x-7-x-7-x-7-x-7-5-5-x-3-x-3-x-3-x-3-x-3-x-3-x-3-5-5-
    
    G-|-------------------------------------------------------------------------|
    D-|-------------------------------------------------------------------------|
    A-|----------------------------------------------------------------------------------------------------
    E-|-x-7-x-7-x-7-x-7-x-7-x-7-x-7-5-5-x-3-x-3-x-3-x-3-x-3-x-3-x-3-5-5-5-5-5-5-|
    
    G-|----------------------------------------------------------------------|
    D-|----------------------------------------------------------------------|
    A-|-7-7-7-7---------5-5-5-5---------7-7-7-7---------5-5-5-5-----7-7-7-7-7--|
    E-|---------3-3-3-3---------5-5-5-5---------3-3-3-3------------5------------|
    
    G-|-----------------------|-------------------------------------------------
    D-|-----------------------|-------------------------------------------------------
    A-|--------------------------------|-3-3-3-3-3-3-3-3-5-5-5-5-5-5-5-5---
    E-|-2-2-2-2-5-4-0-0-0-0-0-|-----------------------------------------------5-5-5-5-5-5-5-5-
    
    G-|-----------------------------------------|
    D-|-----------------------------------------|
    A-|-7-7-7-7-7-7-7-7-3-3-3-3-3-3-3-3-5-5-5-5-|
    E-|-----------------------------------------|
    
    
    G-|------------------------------------------------------------------------------------------
    D-|------------------------------------------------------------------------------------------
    A-|-3-3-3-3-3-3-3-3-5-5-5-5-5-5-5-5-------------------------7-7-7-7-7-7-7-7-
    E-|---------------------------------------------5-5-5-5-5-5-5-5---------------------------
    
    G-|-------------------------|--------------|
    D-|----------------------------------|------
    A-|-3-3-3-3-3-3-3-3-5-5-5-5-|---|--
    E-|-------------------------|---------------…
  • Capo(1st Fret) Throughout Song
    
    Intro (acoustic)
    
    Guitar 1(Strumming)
    Guitar 2(Slide all notes)
    
    Guitar 1:    Dm       C        G      Bb
    Guitar 2: e|---------------------------------------|
              B|---------------------------------------|…
  • INTRO
     1
    e-|------------------------------------------------------------------||----------------------------------------------------------------------|
    B-|------------------------------------------------------------------||----------------------------------------------------------------------|
    G-|------------------8------------------------------6----------------||------------------8------------------------------6--------------------|
    D-|--6---------------8---------------3--------------6----------------||--6---------------8---------------3--------------6--------------------|
    A-|--6---------------6---------------3--------------4----------------||--6---------------6---------------3--------------4--------------------|
    E-|--4-------------------------------1-------------------------------||--4-------------------------------1-----------------------------------|…
  • Intro:
    G|--9--------------------------------------------------------------|
    D|---10101010101010--12----------------10----------------10---9~~--|
    A|---------------------10101010101010----12121212121212----888-----|
    E|-----------------------------------------------------------------|
    
    G|--9--------------------------------------------------------------|
    D|---10101010101010--12----------------10--------------------------|
    A|---------------------10101010101010----12121212121212--8-7-5-55~~|
    E|-----------------------------------------------------------------|
    
    Verse:
    G|--------------------------------------------------------------------------|
    D|--------------------------------------------------------------------------|
    A|--33333333----------------------------33333333----------------------------|
    E|-----------33333333-55555555-11111111----------55555555-00000000-11111111-|
    
    G|--------------------------------------------------------------------------|
    D|--------------------------------------------------------------------------|
    A|--33333333----------------------------33333333----------------------------|
    E|-----------33333333-55555555-11111111----------55555555-11111111-33333333-|
    
    Chorus:…
  • Main Bass theme
    |-------------------|------------------------|
    |-----10---9---10---|-------12----10----9----|
    |-8-8----8---8----8-|-10-10----10----10---10-|
    |-------------------|------------------------|
     							   end
    |------------------9----12---10----9--------|-------|
    |-------10----12-----10----10---10---10-10-|-------|
    |-12-12----12----12-------------------------|-7--2--|
    |-------------------------------------------|-------|…
  • Strings: E ,A ,D ,G
    
    
    INTRO/VERSES
    G -------------------------------------------------------------------------------
    D -------------------------------------------------------------------------------
    A --4--4--4--4--4--4--4--4--2--2--2--2--2--2--2--2-------------------------------
    E…
  • Intro/ Guitar 1
    e|---------------------------------------------------------------------------|
    B|-8---8---8----8---8---8---6---6---6---8---8---8----------------------------|
    G|---5---5---5----4---4---4---2---2---2---5---5---5--------------------------|
    D|---------------------------------------------------------------------------|
    A|---------------------------------------------------------------------------|
    E|---------------------------------------------------------------------------|
    
    Intro/…
  • Key: F
    
    Tuning: Standard EADGBe
    
    Chords used:
    F -   133211
    C -   x32010
    Dm -  xx0231
    Bb -  x13331
    F/A - x032xx
    A -   x02220
    Gm -  355333
    C/E - 032xxx
    
    
    Intro:
    
    Bass: Dm-A-Bb--C-Bb-A- x2
    
    Distortion: Dm-A-Bb--C-Bb-A-…
  • Key: D
    
    Tuning: Standard EADGBe
    
    Chords used:
    Bm -    x24432
    G -     320033
    D -     xx0232
    A -     x02220
    Em -    022000
    F# -    244322
    F#m -   244222
    F#/Bb - x143xx
    A/C# -  x476xx
    
    
    Verse 1:
         Bm
    On…
  • G-|-------------------------------------------------------------------
    D-|-----------------------------------------------------------------------
    A-|--8-7-7-7--8-7-7-7--8-7-7-7--8-10--8-7-7-7--8-7-7-7--8-7-7-7-3-3-3-
    E-|-------------------------------------------------------------------
    
    G-|-------------------------------------------------------------------
    D-|----------------------------------------------------------------------
    A-|--8-7-7-7--8-7-7-7--8-7-7-7--8-10--8-7-7-7--8-7-7-7--8-7-7-7-3-3-3-
    E-|-------------------------------------------------------------------
    
    G-|-------------------------------------------------------------------
    D-|-------------------------------------------------------------------
    A-|--8-7-7-7--8-7-7-7--8-7-7-7--8-10--8-7-7-7--8-7-7-7--8-7-7-7-3-3-3-
    E-|-------------------------------------------------------------------
    
    G-|----------------------------------------------------------------------
    D-|---------------------------------------------------------------------------
    A-|--8-7-7-7--8-7-7-7--8-7-7-7--8-10--8-7-7-7--8-7-7-7--8-7-7-7-10-10-10-
    E-|----------------------------------------------------------------------
    
    G-|-------------------------------------------------------------
    D-|-------------------------------------------------------------------
    A-|-7-7-5-7-7-5-7-7-5--8--8--8--8-7-7-5-7-7-5-7-7-5--8--8--8--8-
    E-|-------------------------------------------------------------
    
    G-|-------------------------------------------------------------
    D-|---------------------------------------------------------------
    A-|-7-7-5-7-7-5-7-7-5--8--8--8--8-7-7-5-7-7-5-7-7-5--8--8--8--8-
    E-|-------------------------------------------------------------
    
    G-|-------------------------------------------------------------
    D-|-------------------------------------------------------------
    A-|-7-7-5-7-7-5-7-7-5--8--8--8--8-7-7-5-7-7-5-7-7-5-10-10-10-10-
    E-|-------------------------------------------------------------
    
    G-|-----------------------------------------------------------------
    D-|------------------------------------------------------------------
    A-|-7-7-7-7-5-5-5-5-2-2-2-2-2-2-2-2-7-7-7-7-5-5-5-5-2-2-2-2-2-2-2-2-
    E-|-----------------------------------------------------------------
    
    G-|-------------------------------------------------------------------
    D-|-------------------------------------------------------------------
    A-|------------------------8--8--8--8--8--8--8--8---------------------------
    E-|-5-5-5-5-3-3-3-3------------------------------5-5-5-5-3-3-3-3-3-3-3-3-5-
    
    G-|-----------------------------------------------------------------
    D-|-------------------------------------------------------------------------
    A-|--2-3-2--7-7-7-7-5-5-5-5-3-3-3-3-3-3-3-3--2-2-5--------------5-4-4-
    E-|-5--------------------------------------------------------------5-2-2-2-2-------
    
    G-|-----------------------|---------------------------------
    D-|--------------------------------|-----------
    A-|-2-2-5----------------5-4-4-|-2-2-2-2-0-0-0-0-4-4-4-4---
    E-|---------5-2-2-2-2-------|--------------------------------------2-2-2-2-
    
    G-|------------------------------------------
    D-|------------------------------------------
    A-|-3-3-3-3-3-3-3-3-3-3-3-3-3-3-3-3-7-7--7-7-
    E-|------------------------------------------
    
    G-|-------------------------------------------------------------------
    D-|-------------------------------------------------------------------
    A-|--8-7-7-7--8-7-7-7--8-7-7-7--8-10--8-7-7-7--8-7-7-7--8-7-7-7-3-3-3-
    E-|-------------------------------------------------------------------
    
    G-|----------------------------------------------------------------------
    D-|----------------------------------------------------------------------
    A-|--8-7-7-7--8-7-7-7--8-7-7-7--8-10--8-7-7-7--8-7-7-7--8-7-7-7-10-10-10-
    E-|----------------------------------------------------------------------
    
    G-|-----------------------------------------------------------------
    D-|-----------------------------------------------------------------
    A-|-7-7-7-7-5-5-5-5-2-2-2-2-2-2-2-2-7-7-7-7-5-5-5-5-2-2-2-2-2-2-2-2-
    E-|-----------------------------------------------------------------
    
    G-|-------------------------------------------------------------------
    D-|---------------------------------------------------------------------------------
    A-|----------------------8--8--8--8--8--8--8--8------------------------------
    E-|-5-5-5-5-3-3-3-3-----------------------------5-5-5-5-3-3-3-3-3-3-3-3-5-
    
    G-|-----------|---------------------------------|-----------------------
    D-|-----------|------------------------------------------------|-------------------------
    A-|--2-3-2--|-7-7-7-7-5-5-5-5-3-3-3-3-3-3-3-3----|-2-2-5---------------5-4-4-
    E-|-5--------|---------------------------------|--------------------------5-2-2-2-2-------
    
    G-|-----------------------|---------------------------------
    D-|---------------------------|---------------------------------
    A-|-2-2-5-------------5-4-4-|-2-2-2-2-0-0-0-0-4-4-4-4---------
    E-|-------5-2-2-2-2-------|------------------------------------2-2-2-2-
    
    G-|---------------------------------
    D-|---------------------------------
    A-|-3-3-3-3-3-3-3-3-3-3-3-3-3-3-3-3-
    E-|---------------------------------
    
    G-|---------------------------------------------------
    D-|---------------------------------------------------
    A-|--8--8--8-7--8--8--8-7--8--8--8-7--8--8--8-10-10-5-
    E-|---------------------------------------------------
    
    G-|-------------------------------------------------------------------
    D-|--------------------------------------------------------------------
    A-|--8-7-7-7--8-7-7-7--8-7-7-7--8-10--8-7-7-7--8-7-7-7--8-7-7-7-3-3-3-
    E-|-------------------------------------------------------------------
    
    G-|----------------------------------------------------------------------
    D-|----------------------------------------------------------------------
    A-|--8-7-7-7--8-7-7-7--8-7-7-7--8-10--8-7-7-7--8-7-7-7--8-7-7-7-10-10-10-
    E-|----------------------------------------------------------------------
    
    G-|-----------------------
    D-|-----------------------
    A-|--8-7-7-7--8-10--8-7-5-
    E-|-----------------------…
  • Key: C, G
    
    Tuning: Standard EADGBe
    
    Chords used:
    Am -   x02210
    A -    x02220
    E/G# - 476xxx
    F -    133211
    C -    x32010
    G -    320003
    G/B -  x2x003
    B -    x24442
    Bm -   x24432
    Em -   022000
    E -    022100
    Dm…
  • p = pull off
         ~ = Vibrato
         x = Muted note   
    
       Intro 1
    
       e|--3-3-3-3--1-1-------1--|
       B|--3-3-3-3--1-1--3-3--1--|
       G|----------------2-2-----|  x2
       D|------------------------|   
       A|------------------------|…
  • Hm                           G                 A
    Yesterday becomes tomorrow leaves you wanting more
         Em           G                 D   F#
    So intricate becomes the bathroom floor
          Hm                 G…
  • *  = play about 8 times
    ** = play about 16 times
    
    INTRO
    
    G:---------------------------------------------------------------
    D:--------------00-----------------------------------------------
    A:-----------------33-22-00--------------------------------------
    E:--3**-0**-3**--------------------------------------------------
    
    VERSE
    
    G:---------------------------------------------------------------
    D:--------------0**----------------------------------------------
    A:----------3**-------------3*-4*-5*-6*--------------------------
    E:--3**-0**---------3**-0**--------------------------------------
    
    CHORUS
    
    G:---------------------------------------------------------------
    D:--2**-0**---------2**-0**---------0**--------------------------
    A:----------3**-------------3**---------3*-1*--------------------
    E:--------------3**-------------3**------------------------------
    
    VERSE…
  • * = play 8 times 
    Intro. 
    
    G-----------------------------------------------------------------------
    D----------------------------------------------------------------------
    A----0*---2*---0*--3333--2222---0*---2*---0*---3--2--0------------------…
  • standard tuning 
    
    --------------------------------|e
    --------------------------------|b
    --------------------------------|g
    --2-2-2-2-----------------------|d
    --3-3-3-3-----------------------|a
    --------------------------------|e
    
    
    ---------------------------------|e
    ---------------------------------|b
    ---------------------------------|g
    --555--5--333--3--222--2---------|d
    --555--5--333--3--222--2---------|a
    --333--3--111--1--000--0---------|e
    
    ------------------------------------------------|e
    ------------------------------------------------|b
    ------------------------------------------------|g
    --3-3-3---3-5-3-2-3-2-0--555-5--333-3--222-2----|d
    --5-5-5------------------555-5--333-3--222-2----|a
    -------------------------333-3--111-1--000-0----|e
    
    
    ----------------------------------------------|e
    ----------------------------------------------|b
    ----------------------------------------------|g
    -333-3--555-5--------------------------------|d
    -333-3--555-5--------------------------------|a
    -111-1--333-3--------------------------------|e
    
    REPEAT…
  • F Dm Am Am
    F Dm Am Am
    
    
    F                  Dm
    Tragedy pulls us together,
           Am              C
    But anything tears us apart.
    F                          Dm                           Am
    I'm trying hard to stay complacent,…
  • Clean, little bit of chorus
    
                   1st    2nd
    |------|------|------|-----|
    |------|------|------|-----|
    |------|------|------|-----|
    |------|------|------|---8-|
    |---6--|---8--|---10-|-6---|
    |-4----|-6----|-8----|-----|…
  • Key: C
    
    Tuning: Standard EADGBe
    
    Chords used:
    C -     x32010
    G -     320003
    Am -    x02210
    F -     133211
    Fm -    133111
    Dm -    xx0231
    E/G# -  476xxx
    D/F# -  2x023x
    C/E -   032xxx
    G/B -   x2x003
    
    
    Intro:…
  • Verse
    
    Am                           E  
    Let me introduce myself, my name is no concern
        E                              Am           G
    The room is filled with superficial voices
    F…
  • F
    Dim light, saw you sleeping
        Dm                         Bb   
    The door is open waiting to be closed
                                 C
    And it's warm in this little room
    C
    But December is so cold
    F
    Waking to a nightmare
    Dm…
  • G#              D#              B                  C#
    More times than five, I've been right here by your side.
          E                         B   D#
    Still wondering...where did you go?
    G#            D#        B…
  • Guitar: Tony Sly
    
    Tony records over rhythm guitar in this song.
    
    Intro:
    E|------------------------------------------------------------|
    B|------------------------------------------------------------|
    G|--------5-7-8-----------------------------------------------|
    D|-5-5--5-5-7-8-8-8--8-8-8--8---------------------------------|
    A|-5-5--5-3-5-6-8-8--8-8-8--8---------------------------------|
    E|-3-3--3-------6-6--6-6-6--6---------------------------------|…
  • Intro:
    | G | Bm | Em | Cm |
    
    Vers 1:
    (Cm)     G           Bm           Em 
    When you wait for someone to come through 
        Am                         D 
    I'm sorry to inform you of the news 
    
            G           Bm…
  • e|------------------------------------------------------------|
    b|------------------------------------------------------------|
    g|------------------------------------------------------------|
    d|------------------------------------------------------------|
    a|------7-9----------------------------7-7-7-7-9-9-9-9-7-7-7-7|
    E|-10-5------7—-9-5-0-2-0--10-10-10-10------------------------|
    
    
    D5…
  • Intro:x4
    
    e--------------------------------------------------------|
    B--------------------------------------------------------|
    G--------3-3--2-2--0-0-------3-3--2-2--0-0---------------|
    D----0-0-----------------0-0-----------------------------|
    A--------------------------------------------------------|
    E--------------------------------------------------------|
    
    e--------------------------------------------------------|
    B--------------------------------------------------------|
    G--------2-2--0-0-----------------0-0--2-2---------------|
    D------------------3-3--2-2--3-3-------------------------|
    A----3-3-------------------------------------------------|
    E--------------------------------------------------------|
    
    Riff…
  • *= let ring
    
    Intro, Guitar 1
    ---------------------------------------------------
    ---------------------------------------------------
    -8-8-8-9-8-6-4-4-4-4-------------------------------
    -x-x-x-x-x-x-x-x-x-x-------------------------------
    -6-6-6/76-4-2-2-2-2-------------------------------
    ---------------------------------------------------
    
    Intro,…
  • r = let note ring until it changes
    * = play note 6-8 times
    
    PART A - Beth...
    G|--------------------------------------|
    D|--------------------------------------|
    A|--3*--3*--3*--0r--------------3*--7r--| x 1
    E|------------------3r--1*--1*----------|
    
    PART…
  • Key: G
    
    Tuning: Standard EADGBe
    
    Chords used:
    G -    320033
    D -    xx0232
    Em -   022000
    C -    x32010
    D/F# - 2x023x
    Am -   x02210
    
    
    Intro: G--C--
    
    
    Verse 1:
    G
      Up here sedated 
          D/F#
    in my seat
    Can't…
  • Standard Tuning
    
    Chords Used
    
    A  |  F#m  |  C#m  |  D  |  Bm  |  Abm  |
    
    A               F#m                  C#m
    It's funny how blind faith often is used 
            D      A          F#m
    Like a net to fall on in…
  • Intro:
    e|------------------------------------------------|
    B|------------------------------------------------|
    G|-9--9--8--8--6--6--4--4--5--5--4--4--2--2-----2-|
    D|-------------------------------------------4----|
    A|------------------------------------------------|
    E|------------------------------------------------|
    
    Verse:
    E…
  • Tuning:standard
    capo on 1st fret (much easier to play that way)
    
    Intro: play twice
    
        Em    Em/D  C    C/D    G         Dadd9 D Dsus4
    e|---------------------------------------0-2-3-2---------------------------|
    B|--0----0-3-0--1----1-3-1--0---0-3-0---3--3-3-3---------------------------|
    G|----0-----------0-----------0--------2-----------------------------------|
    D|-----2-----------2------------------0------------------------------------|
    A|--2------2-2--3------3-3-----2-------------------------------------------|
    E|--------------------------3----------------------------------------------|
    
    First…
  • Key: D
    
    Tuning: Standard EADGBe
    
    Chords used:
    Bm -    x24432
    G -     320033
    D -     xx0232
    A -     x02220
    F#m -   244222
    F# -    244322
    F#/Bb - x143xx
    A/C# -  x476xx
    D/F# -  2x023x
    
    
    Intro: Bm--G--D--A--…
  • intro:
    
    e-|-----------------------------------------|
    B-|-3-x-3-x-3-----------3-x-3-x-3-4-x-4-x-4-|
    G-|-2-x-2-x-2-3-x-3-x-3-2-x-2-x-2-3-x-3-x-3-|
    D-|-0-x-0-x-0-3-x-3-x-3-0-x-0-x-0-1-x-1-x-1-|repeat once
    A-|-----------1-x-1-x-1---------------------|
    E-|-----------------------------------------|
    
    e-|----------------------------------------------------------------------|
    B-|-3-x-3-x-3-4-x-4-x-4-7-7-7-9-9-9-10-10-10-5-5-5-7-7-7-7-7-7-6-6-6-6-6-|
    G-|-2-x-2-x-2-3-x-3-x-3--------------------------------------------------|
    D-|-0-x-0-x-0-1-x-1-x-1--------------------------------------------------|
    A-|----------------------------------------------------------------------|
    E-|----------------------------------------------------------------------|
    
    e-|------------------------------------------------------------------|
    B-|-7-7-7-9-9-9-10-10-10-5-5-5-7-7-7-7-7-7-6-6-6-6-6-----------------|
    G-|--------------------------------------------------6-7-6-4-6-4-----|
    D-|--------------------------------------------------------------7-6-|
    A-|------------------------------------------------------------------|
    E-|------------------------------------------------------------------|
    
    verse:
    e-|------------------------------------------------------------------|
    B-|------------------------------------------------------------------|
    G-|-----------------4-4-4-4-7-7-7-7-----------------4-4-4-4-7-7-7-7--|
    D-|-4-4-4-4-7-7-7-7-4-4-4-4-7-7-7-7-4-4-4-4-7-7-7-7-4-4-4-4-7-7-7-7--|
    A-|-4-4-4-4-7-7-7-7-2-2-2-2-5-5-5-5-4-4-4-4-7-7-7-7-2-2-2-2-5-5-5-5--|
    E-|-2-2-2-2-5-5-5-5-----------------2-2-2-2-5-5-5-5------------------|
    
    e-|------------------------------------------------------------------|
    B-|------------------------------------------------------------------|
    G-|-----------------4-4-4-4-7-7-7-7-----------------4-4-4-4-7-7-7-7--|
    D-|-4-4-4-4-7-7-7-7-4-4-4-4-7-7-7-7-4-4-4-4-7-7-7-7-4-4-4-4-7-7-7-7--|
    A-|-4-4-4-4-7-7-7-7-2-2-2-2-5-5-5-5-4-4-4-4-7-7-7-7-2-2-2-2-5-5-5-5--|
    E-|-2-2-2-2-5-5-5-5-----------------2-2-2-2-5-5-5-5------------------|
    
    
    e-|---------------------------------|
    B-|---------------------------------|
    G-|-6-6-6-6-6-6-6-6-6-6-6-6-6-6-6-6-|
    D-|-6-6-6-6-6-6-6-6-6-6-6-6-6-6-6-6-|
    A-|-4-4-4-4-4-4-4-4-4-4-4-4-4-4-4-4-|
    E-|---------------------------------|
    i…
  • G-|-------------------------------------------------------------------
    D-|-------------------------------------------------------------------
    A-|-7-7-7-7-2-2-2-2-3-3-3-3-----------7-7-7-7-2-2-2-2-3-3-3-3-5-5-5-5-
    E-|--------------------------7-7-6-6---------------------------------
    
    G-|----------------------------------------------------------------------
    D-|----------------------------------------------------------------------
    A-|-7-7-7-7-2-2-2-2-3-3-3-3--------------7-7-7-7-2-2-2-2-3-3-3-3-5-5-5-5-
    E-|---------------------------7-7-6-6---------------------------------
    
    G-|----------------------------------------------------------------------------
    D-|-----------------------------------------------------------------------------
    A-|-7-7-7-7-2-2-2-2-3-3-3-3------------7-7-7-7-2-2-2-2-3-3-3-3-5-5-5-5-
    E-|--------------------------7-7-6-6---------------------------------
    
    G-|-------------------------------------------------------------------|
    D-|-------------------------------------------------------------------|
    A-|-7-7-7-7-2-2-2-2-3-3-3-3-----------7-7-7-7-2-2-2-2-3-3-3-3-5-5-5-5-|
    E-|---------------------------7-7-6-6---------------------------------|
    
    G-|-----------------------------------------------------------------
    D-|-----------------------------------------------------------------
    A-|-7-7-7-7-7-7-7-7--9--9--9--9--9--9--9--9-------------------------
    E-|-------------------------------------------7-7-7-7-7-7-7-3-3-3-3-
    
    G-|-------------------------------------------------------------------------
    D-|-------------------------------------------------------------------------
    A-|-------------------------------------------------------------------------
    E-|-5-5-5-5-7-7-7-7-7-7-7-7-3-3-3-3-5-5-5-5-7-7-7-7-7-7-7-7-3-3-3-3-5-5-5-5-
    
    G-|-----------------------------------------------------------------|
    D-|-----------------------------------------------------------------|
    A-|---------------------------------|-----------------------------4-|
    E-|-7-7-7-7-7-7-7-7-3-3-3-3-5-5-5-5-|-2-2-2-2-3-3-5-5-2-2-2-2-3-3---|
    
    G-|---------------------------------------------------------------------
    D-|---------------------------------------------------------------------
    A-|-7-7-7-7-2-2-2-2-3-3-3-3---------7-7-7-7-7-7-7-7-7-7-7-7-10-10-10-10-
    E-|-------------------------3-3-3-3-------------------------------------
    
    G-|---------------------------------------------------------------------|
    D-|---------------------------------------------------------------------
    A-|-7-7-7-7-2-2-2-2-3-3-3-3---------7-7-7-7-7-7-7-7-7-7-7-7-10-10-10-10-|
    E-|-------------------------3-3-3-3-------------------------------------|
    
    G-|-----------------------------------------------------------------
    D-|-----------------------------------------------------------------
    A-|-7-7-7-7-2-2-2-2-3-3-3-3---------7-7-7-7-2-2-2-2-3-3-3-3-5-5-5-5-
    E-|-------------------------7-7-6-6---------------------------------
    
    G-|---------------------------------------------------------------------
    D-|---------------------------------------------------------------------
    A-|-7-7-7-7-2-2-2-2-3-3-3-3-----------7-7-7-7-2-2-2-2-3-3-3-3-5-5-5-5-
    E-|---------------------------7-7-6-6---------------------------------
    
    G-|-----------------------------------------------------------------
    D-|-------------------------------------------------------------------
    A-|-7-7-7-7-2-2-2-2-3-3-3-3-----------7-7-7-7-2-2-2-2-3-3-3-3-5-5-5-5-
    E-|--------------------------7-7-6-6---------------------------------
    
    G-|-----------------------------------------------------------------|
    D-|-------------------------------------------------------------------
    A-|-7-7-7-7-2-2-2-2-3-3-3-3----------7-7-7-7-2-2-2-2-3-3-3-3-5-5-5-5-|
    E-|--------------------------7-7-6-6---------------------------------|
    
    G-|------------------------------------------------------------------------
    D-|-------------------------------------------------------------------------
    A-|-7-7-7-7-7-7-7-7--9--9--9--9--9--9--9--9-6-6-6-6-|-----------------------
    E-|-------------------------------------------------|-7-7-7-7-7-7-7-3-3-3-3-
    
    G-|-------------------------------------------------------------------------
    D-|-------------------------------------------------------------------------
    A-|-------------------------------------------------------------------------
    E-|-5-5-5-5-7-7-7-7-7-7-7-7-3-3-3-3-5-5-5-5-7-7-7-7-7-7-7-7-3-3-3-3-5-5-5-5-
    
    G-|---------------------------------|-------------------------------|
    D-|---------------------------------|-------------------------------|
    A-|---------------------------------------------------------------4-|
    E-|-7-7-7-7-7-7-7-7-3-3-3-3-5-5-5-5-|-2-2-2-2-3-3-5-5-2-2-2-2-3-3---|
    
    G-|---------------------------------------------------------------------
    D-|---------------------------------------------------------------------
    A-|-7-7-7-7-2-2-2-2-3-3-3-3---------7-7-7-7-7-7-7-7-7-7-7-7-10-10-10-10-
    E-|-------------------------3-3-3-3-------------------------------------
    
    G-|---------------------------------------------------------------------|
    D-|---------------------------------------------------------------------|
    A-|-7-7-7-7-2-2-2-2-3-3-3-3---------7-7-7-7-7-7-7-7-7-7-7-7-10-10-10-10-|
    E-|-------------------------3-3-3-3-------------------------------------|
    
    G-|-------------------------------------------------|
    D-|-------------------------------------------------|
    A-|-12-12-12-12-12-12-12-12-12-12-12-12-12-12-12-12-|
    E-|-------------------------------------------------|
    
    G-|-------------------------------------------------------------------|
    D-|-------------------------------------------------------------------|
    A-|-------------------------------------------------------------2-4-6-|
    E-|-2-2-2-3-0-3-0-3-2-2-2-3-0-3-0-3-2-2-2-3-0-3-0-3-2-2-2-3-0-3-------|
    
    G-|---------------------------------------------------------------------
    D-|---------------------------------------------------------------------
    A-|-7-7-7-7-2-2-2-2-3-3-3-3---------7-7-7-7-7-7-7-7-7-7-7-7-10-10-10-10-
    E-|-------------------------3-3-3-3-------------------------------------
    
    G-|---------------------------------------------------------------------
    D-|---------------------------------------------------------------------
    A-|-7-7-7-7-2-2-2-2-3-3-3-3---------7-7-7-7-7-7-7-7-7-7-7-7-10-10-10-10-
    E-|-------------------------3-3-3-3-------------------------------------
    
    G-|---------------------------------------------------------------------
    D-|----------------------------------------------------------------------
    A-|-7-7-7-7-2-2-2-2-3-3-3-3-----------7-7-7-7-7-7-7-7-7-7-7-7-10-10-10-10-
    E-|--------------------------3-3-3-3-------------------------------------
    
    G-|-----------------------------------------------------------------
    D-|-----------------------------------------------------------------
    A-|-7-7-7-7-2-2-2-2-3-3-3-3-------------7-7-7-7--9--9--9--9-10-10-10-10-
    E-|---------------------------3-3-3-3---------------------------------
    
    G-|-----------------------------------------------------------------|
    D-|-----------------------------------------------------------------|
    A-|-12-12-12-12-12-12-12-12-12-12-12-12-12-12-12-12-12-12-12-12-----|
    E-|--------------------------------------------------------------0--|…
  • 00:23
    G------------------------------------------------------------------------
    D------------------------------------------------------------------------
    A------------------------------------55555555----------55555555-33333333-
    E-00000000000000000-5555555555555555----------55555555-------------------
    
    G------------------------------------------------------------------------
    D------------------------------------------------------------------------
    A-22222222---------------------------------------------------------------
    E----------5555-2222-3---------------------------------------------------
    
    BREAK
    
    00:50
    G------------------------------------------------------------------------
    D------------------------------------------------------------------------
    A-3333333333333333-5555555555555555--------------------------------------
    E-----------------------------------3333333333333333-22222222-00000000000
    
    G------------------------------------------------------------------------
    D------------------------------------------------------------------------
    A------------------------55555555----------55555555-33333333-22222222----
    E-00000-5555555555555555----------55555555-------------------------------
    
    G------------------------------------------------------------------------
    D------------------------------------------------------------------------
    A------------------------------------------------------------------------
    E-5555-2222-3------------------------------------------------------------
    
    
    01:29
    G------------------------------------------------------------------------
    D------------------------------------------------------------------------
    A----------------------------------55555555-33333333----------22---------
    E-33333333333333333333333333333333-------------------33333333------------
    
    
    01:49
    G------------------------------------------------------------------------
    D------------------------------------------------------------------------
    A------------------3333333333333333-5555555555555555---------------------
    E-3333333333333333-----------------------------------3333333333333333----
    
    G------------------------------------------------------------------------
    D------------------------------------------------------------------------
    A----------------------------------------------5555555555555555----------
    E-22222222-00000000000000000-55555555-33333333------------------555555555
    
    G------------------------------------------------------------------------
    D------------------------------------------------------------------------
    A---------5-5-5--55---3-3-3--33---2-2-2--22------------------------------
    E-5555555-----------------------------------5555-2222-3--3333333333333333
    
    G------------------------------------------------------------------------
    D------------------------------------------------------------------------
    A------------------55555555-33333333----------3333333333333333-22222222--
    E-3333333333333333-------------------33333333----------------------------
    
    
    02:56
    G------------------------------------------------------------------------
    D------------------------------------------------------------------------
    A-0000000000000000-5555555555555555------------------2222222222222222-333
    E-----------------------------------3333333333333333---------------------
    
    G------------------------------------------------------------------------
    D----------------------------------------2-2-2-2-------------------------
    A-333333333333-----------------------5-5---------------------------------
    E--------------5555555555555555--3-3-------------------------------------
    
    
    03:16
    G------------------------------------------------------------------------
    D------------------------------------------------------------------------
    A----------------------------------55555555-33333333----------33333333---
    E-33333333333333333333333333333333-------------------33333333----------33
    
    G------------------------------------------------------------------------
    D------------------------------------------------------------------------
    A--------33333333----------33333333----------33--------------------------
    E-333333----------33333333----------33333333-----------------------------…
  • Tuning: Standard E
    
    
     Abm			   E
    Sleep is also known as I'm awake,
    
     B			       F#
    Addicted to the easy life that everybody hates.
    
      Abm				    E
    I wonder, should I call you or just stare in space again?
    
     C#m…
  • Intro:     *=strum
    G:------------------------|    
    D:------------------------|     
    A:----------2-1*----2-----|  x8   
    E:--0*---2-3---------3-2--|  (first 2 times no strum)
    
        ^= 3-5 times 
    G:---------------------------------|…
  • G                                                   F#/G
    Always in the way, I think I've had enough of this
    Em                                   D
    Why is everyone so cold and lonely?
    C                            G…
  • Key: A
    
    Tuning: Standard EADGBe
    
    Chords used:
    A -    x02220
    E -    022100
    F#m -  244222
    D -    xx0232
    E/G# - 476xxx
    D/F# - 2x023x
    A/C# - x476xx
    
    
    Intro: A-- x3, A(hold)
    
    
    Verse 1:
      A
    I love you my…
  • Intro & Verse Pt 1
    G--------------------------------------
    D--------------------------------------
    A-----------33333333-55555555---------- 
    E--00000000-------------------3333-2222-
    
    Verse Pt 2 
    G----------------------------------------
    D----------------------------------------
    A--------------------55555555------------
    E--000000000-55555555---------3333-2222--
    
    Chorus
    G----------------------------------------
    D----------------------------------------
    A---------5555555-22222222-7777-5555-3333
    E-00000000-------------------------------
    
    G--------------------------------------------
    D--------------------------------------------
    A----------222222-33333333-55555555----------
    E-55555555--------------------------3333-2222
    
    Solo
    G------------------------------------
    D------------------------------------
    A-77777777-33333333-55555555-22222222
    E------------------------------------
    
    G------------------------------------
    D------------------------------------
    A-77777777-33333333-55555555---------
    E-----------------------------3333-2222…
  • Intro (x2Ѕ)
    G|---------------------------------------------------------------|
    D|---------------------------------------------------------------|
    A|------------------2-2-2-2--7-7-7-7-----------------------------|
    E|3-3-3-3--2-2-2-2-----------------------------------------------|
    
    Verse
    G|---------------------------------------------------------------|
    D|---------------------------------------------------------------|
    A|5-5-5-5-----------------------------------------5-5-5-5-5-5-5-5|
    E|-------5-5-5-5--2-2-2-2-2-2-2-2--3-3-3-3-3-3-3-3---------------|
    
    G|---------------------------------------------------------------|
    D|---------------------------------------------------------------|
    A|---------------------------------5-5-5-5-5-5-5-5---------------|
    E|5-5-5-5-5-5-5-5--3-3-3-3-3-3-3-3----------------5-5-5-5-5-5-5-5|
    
    G|---------------------------------------------------------------|
    D|---------------------------------------------------------------|
    A|---------5-5-5-5-----------------------------------------------|
    E|3-3-3-3-----------2-2-2-2-2-2-2-2------------------------------|
    Intro…
  • Intro
    Gtr. 1
    E||--------------------------------|
    B||--------------------------------|
    G||--------------------------------|
    D||--5-5-5-5-5-5-5-5-8-8-8-8-8-8-8-|
    A||--5-5-5-5-5-5-5-5-8-8-8-8-8-8-8-| x4
    E||--3-3-3-3-3-3-3-3-6-6-6-6-6-6-6-|
    
    Gtr.…
  • Key: C
    
    Tuning: Standard EADGBe
    
    Chords used:
    Am -   x02210
    F -    133211
    C -    x32010
    G -    320033
    Dm -   xx0231
    Em -   022000
    E/G# - 476xxx
    Fm -   133111
    C/E -  032xxx
    G/B -  x2x003
    
    
    Intro: Am--Dm--…
  • Key: A
    
    Tuning: Standard EADGBe
    
    Chords used:
    A -    x02220
    E -    022100
    F#m -  244222
    D -    xx0232
    Bm -   x24432
    E/G# - 476xxx
    D/F# - 2x023x
    
    
    Intro: A-E/G#-D/F#-E- x2
    
    
    Verse 1:
    A   E/G#  D/F#
    Nobody…
  • INTRO (Gtr.1)
    e|--------------------------------------|-----------------3--------3-----------|
    B|--------------------------------------|-------------------3--------3---------|
    G|--11-12-11-14-12-11-----7-9-7-11-9-7--|--6-7-6-7------4--------4-----4-------|
    D|--------------------------------------|-----------5-5------------------------|
    A|---9-10--9-12-10--9-----5-7-5--9-7-5--|--4-5-4-5-----------------------------|
    E|--------------------------------------|--------------------------------------|
    
    INTRO…
  • Intro:
    G:----------------------------------|
    D:-----------------------------5>--|
    A:------6>------5>------5>-------|
    E:-1>------3>------6>------------|
    
    Verse:
    G:---------------|              ----------------------------------|
    D:---------------|…
  • e-----------------------------------------------------------------
    b-----------------------------------------------------------------
    g---------------------------------5---------------7---------------
    d-----------------2---------------5-5-5-5-5-5-5-5-7-7-7-7-7-7-7-7-
    a-5-5-5-5-5-5-5-5-2-2-2-2-2-2-2-2-3-3-3-3-3-3-3-3-5-5-5-5-5-5-5-5-
    e-3-3-3-3-3-3-3-3-0-0-0-0-0-0-0-0-…
  • * = play 8 times
    
    VERSE
    (x2)   
    G:---------------------------------------------------------------
    D:---------------------------------------------------------------
    A:----------------------------------------2*---------------------
    E:-----2*--------------4*-----------------------------------2*---
    
    CHORUS
    G:---------------------------------------------------------------
    D:--1*-----------------------------------------------------------
    A:-------------------2*------------------------------------------
    E:-------------------------------------2*------------4*----------
    
    G:---------------------------------------------------------------
    D:--1*-----------------------------------------------0-0-0-0-----
    A:------------------2*-----------------------1-1-1-1-------------
    E:----------------------------------2*---------------------------
    
    G:---------------------------------------------------------------
    D:--1*-----------------------------------------------------------
    A:-------------------2*---------------------------------4*-------
    E:----------------------------------2*---------------------------
    
    G:---------------------------------------------------------------
    D:---------------------------------------------------------------
    A:---------------2*--1-1-1-1-------------------------------------
    E:---------------------------4-4-4-4-----------------------------
    
    VERSE…
  • Tuning: Standard
    
    keys,
    
    / = slide up
     = slide down
    ~ = let ring
    x = strum muted strings / mute string
    
    or
    
    x = Palm mute the upcoming chord/or the one before
    
    PM = Palm mute
    NH = Natural Harmonic
    
    
    ****INTRO****
    
    *
    e|-------------------------------------------------|
    B|-x-x--9-x-x--9/10-x-x-10-x-x-10-6-x-x--6-x-x--6-|
    G|-x-x-13-x-x-13/14-x-x-14-x-x-1410-x-x-10-x-x-10-|
    D|-------------------------------------------------|
    A|-------------------------------------------------|
    E|-------------------------------------------------|
    
    **
    Lead…
  • G-|-----------------------------------------------------------------
    D-|-----------------------------------------------------------------
    A-|-7-7-7-7-7-7-7-7-------------------------------------------------
    E-|----------------------3-3-3-3-3-3-3-3-5-5-5-5-5-5-5-5-7-7-7-7-7-7-7-7-
    
    G-|-----------------------------------------------------------------|
    D-|-----------------------------------------------------------------|
    A-|-7-7-7-7-7-7-7-7-------------------------------------------3-3-3-3-3-3-3-3-|
    E-|----------------------3-3-3-3-3-3-3-3-5-5-5-5-5-5-5-5-----------------|
    
    G-|-------------------------------------------------------------
    D-|------------------------------------------------------------------------------
    A-|-3-3-3-3-3-3-3-3-3-3-3-3-3-3-3-3-----------------7-7-7-7-7-7-5-5-
    E-|---------------------------------------------x-x-0-x-x-0-----------------
    
    G-|-------------------------------------------------------------|
    D-|----------------------------------------------------------------
    A-|-3-3-3-3-3-3-3-3-3-3-3-3-3-3-3-3---------------2-7-7-7-7-7-7-5-5-|
    E-|--------------------------------------------x-x-0-x-x-0-----------------|
    
    G-|-----------------------------------------------------------------
    D-|-----------------------------------------------------------------
    A-|-----------------------------------------------------------------
    E-|-7-7-7-7-7-7-7-7-2-2-2-2-2-2-2-2-3-3-3-3-3-3-3-3-3-3-3-3-3-3-3-3-
    
    G-|-----------------------------------------------------------------|
    D-|-----------------------------------------------------------------|
    A-|-----------------------------------------------------------------|
    E-|-7-7-7-7-7-7-7-7-2-2-2-2-2-2-2-2-3-3-3-3-3-3-3-3-3-3-3-3-3-3-3-3-|
    
    G-|-----------------------------------------------------------------
    D-|-------------------------------------------------------------------
    A-|-7-7-7-7-7-7-7-7--------------------------------------------------
    E-|----------------------3-3-3-3-3-3-3-3-5-5-5-5-5-5-5-5-7-7-7-7-7-7-7-7-
    
    G-|-----------------------------------------------------------------|
    D-|-------------------------------------------------------------------
    A-|-7-7-7-7-7-7-7-7-------------------------------------------3-3-3-3-3-3-3-3-|
    E-|----------------------3-3-3-3-3-3-3-3-5-5-5-5-5-5-5-5-----------------|
    
    G-|-------------------------------------------------------------
    D-|--------------------------------------------------------------
    A-|-3-3-3-3-3-3-3-3-3-3-3-3-3-3-3-3----------------7-7-7-7-7-7-5-5-
    E-|--------------------------------------------x-x-0-x-x-0-----------------
    
    G-|-------------------------------------------------------------|
    D-|-------------------------------------------------------------|
    A-|-3-3-3-3-3-3-3-3-3-3-3-3-3-3-3-3----------------7-7-7-7-7-7-5-5-|
    E-|--------------------------------------------x-x-0-x-x-0-----------------|
    
    G-|-----------------------------------------------------------------
    D-|-----------------------------------------------------------------
    A-|-----------------------------------------------------------------
    E-|-7-7-7-7-7-7-7-7-2-2-2-2-2-2-2-2-3-3-3-3-3-3-3-3-3-3-3-3-3-3-3-3-
    
    G-|-----------------------------------------------------------------|
    D-|-----------------------------------------------------------------|
    A-|-----------------------------------------------------------------|
    E-|-7-7-7-7-7-7-7-7-2-2-2-2-2-2-2-2-3-3-3-3-3-3-3-3-3-3-3-3-3-3-3-3-|
    
    G-|-----------------------------------------------------------------
    D-|-----------------------------------------------------------------
    A-|-4-4-4-4-4-4-4-4-------------------------------------------------
    E-|----------------------4-4-4-4-4-4-4-4-5-5-5-5-5-5-5-5-5-5-5-5-5-5-5-5-
    
    G-|-----------------------------------------------------------------|
    D-|-----------------------------------------------------------------|
    A-|-4-4-4-4-4-4-4-4---------------------------------------------------
    E-|-----------------------4-4-4-4-4-4-4-4-5-5-5-5-5-5-5-5-5-5-5-5-5-5-5-5-|
    
    G-|---------------------------------------------
    D-|---------------------------------------------
    A-|-------------------------------------------------------------
    E-|-5-5-7--8-10-10-12-13--13-10-12--8-10-7--8-7-
    
    G-|---------------------------------------------|
    D-|---------------------------------------------|
    A-|----------------------------------------------
    E-|-5-5-7--8-10-10-12-13--13-10-12--8-10-7--8-7-|…
  • Tuning: Standard
    
    | .  palm mute
    | ~  let ring
    | +  harmonic
    
    
    Verse 1
    e|---+---------------------------------------------------------------|
    B|---+---------------------------------------------------------------|
    G|---+---6-----------8-----------6-----------8-----------8-----------|
    D|---+---6---6---4---8---6---4---6---6---4---8---6---4---8---4---8---|
    A|---+---4---6---4---6---6---4---4---6---4---6---6---4---6---4---8---|
    E|---+-------4---2-------4---2-------4---2-------4---2-------2---6---|
    
    Chorus
    e|-------------------------------+---|
    B|-------------------------------+---|
    G|---6-------8-----------8---6---+---|
    D|---6---4---8---6---4---8---6---+---|
    A|---4---4---6---6---4---6---4---+---|
    E|-------2-------4---2-----------+---|
    
    Verse…
  • e|---------------------------------------------------------------------------| 
    B|---------------------------------------------------------------------------| 
    G|-------------------------------------------------------------------------5-|…
  • e||----------------------------    -----------------------|
    B||---------------9------------    ------------7----------|
    G||-----9----9---------9----9--    ----8---8-------8---9--|
    D||--11---11---11---11---11---- X3 --9---9---9---9---9----|
    A||----------------------------…
  • Key: G#
    
    Tuning: Standard EADGBe
    
    Chords used:
    G# -   466544
    Eb -   x68886
    Fm -   133111
    C# -   x46664
    Eb/G - 365xxx
    
    
    Intro: 1-2-3-4!!!
    C#-- x2
    
    
    Verse 1:
    G#
    Everyday is passing 
            Fm…
  • C# A B F# E
    C# A B F# E
    C# A B F# E
    C# A B F# E
    B
    
    
      C#                      A
    I see you have lost the ambition to love
    E            G#     A        B
    When did you get so hard and callous?
    C#
    Things are good…
  • > = Slide
    
    The Solo's pretty easy, but here it is:
    
    Beat:& 2 & 3 & 4 & | 1 & 2 & 3 & 4 & | 1 & 2 & 3 & 4 & |
    E|-----------------|-----------------|-----------------|
    B|-8---------------|-----------------|-----------------|
    G|------10-9-----7-|-------7-910-7---|-----------------|
    D|-----------------|10---------------|-----------------|
    A|-----------------|-----------------|-----------------|
    E|-----------------|-----------------|-----------------|
    
    Beat:&…
  • ** = play about 11 times (listen to cd for rhythm & timing etc)
    *  = about half of above
    
    INTRO
    
    G:---------------------------------------------------------------
    D:----------------0*-33-22----------------0**--------------------
    A:-0**--3**----------------0**--3**------------------------------
    E:-----------1**---------------------1**-------------------------
    
    
    G:---------------------------------------------------------------
    D:-----------3**--0**------------3**--0--------------------------
    A:-0**--3**------------0**--3**----------------------------------
    E:---------------------------------------------------------------
    
    VERSE
    G:---------------------------------------------------------------
    D:---------------------------------------------------------------
    A:-0**--------------------------------3**------------------------
    E:---------------------------------------------------------------
    
    G:---------------------------------------------------------------
    D:------------------------------------------0*-------------------
    A:---------------------------------------------3*----------------
    E:---------1**---------------------------------------------------
    
    G:---------------------------------------------------------------
    D:---------------------------------------------------------------
    A:--------------------------------------------0**----------------
    E:----------3**--------------------------------------------------
    
    G:---------------------------------------------------------------
    D:------------------------0*-------------------------------------
    A:---------------------------------------------------------------
    E:--------1*-------------------------------3*-------1*-----------
    
    G:---------------------------------------------------------------
    D:---------------------------------------------------------------
    A:------3**------------------------------------------------------
    E:----------------------------------3**-444----------------------
    
    G:---------------------------------------------------------------
    D:---------------------------------------------------------------
    A:---------------------------------------------------------------
    E:------5*----------------3*----------2*-------------------------
    
    G:---------------------------------------------------------------
    D:---------------------------------------------------------------
    A:-------------------------------------------3**-----------------
    E:------------1**------------------------------------------------
    
    G:---------------------------------------------------------------
    D:---------------------------------------------------------------
    A:---------------------------------------------------------------
    E:--------3**----------------------------------------------------
    
    G:---------------------------------------------------------------
    D:--------------------------------------------3**-0**------------
    A:------------------------------------0**-3**--------------------
    E:----------0**--------------------------------------------------
    
    VERSE…
  • A=left guitar   B=right guitar   A&B=both
    :
    # intro #A *=play 5-6X m=palm-mute
    E----mmmmmm--mmmmmm--mmmmmm--mm--mm--mmmmmm--mmmmmm--mmmmmmm--------|
    B-------------------------------------------------------------------|
    G----------55------77----------------------55------77--------*------|
    D---2------555555557777777755------22------555555557777777775----*--|
    A---222222233333333555555555555555522222222333333335555555555---5---|
    E---000000033333333555555553333222200000000333333335555555553---2---|
    #…
  • Key: F
    
    Tuning: Standard EADGBe
    
    Chords used:
    Dm -   xx0231
    Bb -   x13331
    F -    133211
    C -    x32010
    C/E -  032xxx
    A -    x02220
    Am -   x02210
    A/C# - x476xx
    Eb -   x68886
    Gm -   355333
    Em -   022000
    
    
    Intro:
    
    Spoken:…
  • Key: A
    
    Tuning: Standard EADGBe
    
    Chords used:
    A -    x02220
    E/G# - 476xxx
    G -    320033
    E -    022100
    F#m -  244222
    D -    xx0232
    Dm -   xx0231
    Bm -   x24432
    C# -   x46664
    
    
    Intro:
    
    Bass Solo: A--E/G#--G--D(hold)
    
    
    Verse…
  • Key: G
    
    Tuning: Standard EADGBe
    
    Chords used:
    G -    320033
    D -    xx0232
    Em -   022000
    C -    x32010
    A -    x02220
    G/B -  x2x003
    Cm -   x35543
    D/F# - 2x023x
    
    
    Verse 1:
    G
      I didn't mean
             C
    to…
  • All the chords are power chords of course!!!
    so..
    the guitar is tuned Drop D or half step down!!!!
     
    intro:
    C | Eb (low chord) | D | Bb | Eb (higer chord) | D |X3
    
    C | Bb | Eb (low)
    
    
    C                        Ab
    The…
  • Intro (Guitar 1): 3X
    e|-----------------------------------------------------------------|
    B|-----------------------------------------------------------------|
    G|-7xxxx-7xxxx-7xx-4xxxx-4xxxx-4xx-5xxxx-5xxxx-5xx-7xxxx-7-9-7-----|
    D|-5xxxx-5xxxx-5xx-4xxxx-4xxxx-4xx-5xxxx-5xxxx-5xx-7xxxx-------9-7-|
    A|-----------------------------------------------------------------|
    E|-----------------------------------------------------------------|
    
    Intro…
Наверх