Аккорды «NOFX»

NOFX
NOFX («НоуЭфЭкс») — группа из Сан-Франциско, штат Калифорния, образованная в 1983 г. Изначально группа состояла из вокалиста Фэт Майка (Настоящее имя - Майк Бёркетт), барабанщика Эрика Сэндина и гитариста Эрика Мэлвина. С 1991 г. вторым гитаристом и трубачом стал Эль Хэфе. Тексты группы, нередко саркастические, посвящены политике, обществу, различным субкультурам, расизму, звукозаписывающей индустрии и религии. NOFX выпустили уже 11 студийных альбомов, 10 мини-альбомов и значительное число… Читать полностью... NOFX («НоуЭфЭкс») — группа из Сан-Франциско, штат Калифорния, образованная в 1983 г. Изначально группа состояла из вокалиста Фэт Майка (Настоящее имя - Майк Бёркетт), барабанщика Эрика Сэндина и гитариста Эрика Мэлвина. С 1991 г. вторым гитаристом и трубачом стал Эль Хэфе. Тексты группы, нередко саркастические, посвящены политике, обществу, различным субкультурам, расизму, звукозаписывающей индустрии и религии. NOFX выпустили уже 11 студийных альбомов, 10 мини-альбомов и значительное число синглов, продав более 6 миллионов записей во всем мире и являясь одной из самых успешных независимых групп в истории. Все свои записи группа распространяет собственными силами, не желая сотрудничать с крупными студиями, известными лейблами, коммерческими радиостанциями. * NOFX не занимаются саморекламой и не появляются на MTV. * Название группы происходит от Бостонской хардкор-группы Negative FX Название группы дословно означает "без эффектов". Желание сколотить свою собственную банду возникло у Эрика Мелвина еще в 1983 году. Он к тому времени уже подвизался на гитаре в одной группе, но что-то у них там не ладилось. Повстречав ударника по имени Диллон, тоже разочарованного в своей команде, Эрик решил объединить с ним усилия по созданию нового проекта. На роль басиста барабанщик привел своего знакомого Майка Беркетта по прозвищу "толстый Майк", а на место у микрофона претендовал парень, которого звали Стив. Впрочем, этот тип умудрился прогулять несколько первых репетиций, а после того исчез и Диллон. Сиденье ударника занял приятель Майка Эрик Сандин, а петь пытались Мелвин и Беркетт. Однако первый из них не мог одновременно играть на гитаре и орать в микрофон, и потому вокальные обязанности отошли к толстяку Майку. Трио, нареченное " NoFX ", принялось выступать по маленьким клубам в окрестностях Лос-Анджелеса, а вскоре записало и первую демку. Распространяли его своеобразно, разместив объявление о том, что кто пришлет свою кассету, тот получит ее обратно с записью. Через некоторое время стали приходить отклики с просьбой выступить там-то и там-то, и в 1985 году группа отправилась в свое первое турне. По окончании гастролей Эрик Сандин уехал в свою родную Санта-Барбару, а место за ударными занял Скотт Селлерс. С ним банда совершила еще одно турне и выпустила пару семидюймовок, "No F-X" и "So What If We're on Mystic?", а затем вакансия ударника вновь оказалась свободной. На пару недель эту должность занял Скотт Элдал, после чего в родную команду вернулся Сандин. Тем временем группа продолжала подыскивать себе "чистого" вокалиста, и, наконец, мечты удалось воплотить в жизнь с помощью Дэйва Аллена. Однако этому парню не повезло, и через несколько месяцев он погиб в автомобильной катастрофе. Пришлось вновь петь толстому Майку, но зато состав " NoFX " пополнился вторым гитаристом Дэйвом Казилласом. Дэйв участвовал в паре туров по Штатам, а также в первых европейских гастролях. В его бытность в группе были записаны пластинки "Liberal Animation" и "P.M.R.C.". Впрочем, больше игры на гитаре Казиллас любил прикладываться к бутылке, что послужило причиной его отставки. В 1989-м Дэйва сменил Стив Кидвиллер, дебютировавший на диске "S&M Airlines", но и он не стал долго задерживаться в " NoFX ". Спустя два года панковская жизнь Стиву порядком поднадоела, и гитарист объявил о своем уходе. На этот раз четвертым членом коллектива Аарон Абейта по прозвищу Эль Хефе, который помимо шестиструнки еще играл и на трубе. В начале 90-х, когда народ слушал "мэйнстрим" типа "Bad Religion" и "Offspring", " NoFX " выпустили анти-коммерческую пластинку "White Trash, Two Heebs and a Bean". Лишь одна вещица, "Please Play This Song on the Radio", имела мелодичный мотивчик, да и та оканчивалась потоком ругательств. Следующий альбом, "Punk in Drublic", стал самым успешным в дискографии группы и завоевал золото. В 1996-м " NoFX " отдали дань моде, выпустив пригранжованную пластинку "Heavy Petting Zoo", но уже на следующий год вернулись к своим панковским корням с "So Long & Thanks for All the Shoes". Панк-рок звучал и на релизах "Pump Up the Valuum" и "Bottles to the Ground", после чего группа позволила себе поэкспериментировать, выпустив EP "The Decline", состоявший из одного 18-минутного трека. Кстати, "Pump Up…" стал последним альбомом " NoFX ", вышедшим на "Epitaph Records", и в дальнейшем работы калифорнийских панков выходили на лейбле Майка "Fat Wreck Chords". Основательно покопавшись в старых пленках, в 2002-м команда выпустила сборник "45 or 46 Songs That Weren't Good Enough To Go On Our Other Records", куда вошла лишь одна новая песня. В том же году вместе с "Rancid" группа записала сплит "BYO Split Series Vol. III", а новая студийная работа, "The War On Errorism", увидела свет только в 2003-м. Альбом носил ярко выраженный политический характер, а в продолжение этого толстый Майк организовал акцию "Rock Against Bush". Очередная полнометражка вышла в 2006-м, а еще год спустя на свет появился второй официальный концертник " NoFX ", "They’ve Actually Gotten Worse Live". Скрыть...
Популярные аккорды NOFX:
алфавиту | просмотрам | случайно
  • VERSE
    G:---------------------------------------------------------------
    D:---------------------------------------------------------------
    A:-3>----------------------3>------------------------------------
    E:------3>----5>------3>--------3>---1>------5-3-----------------
    
    BRIDGE
    G:---------------------------------------------------------------
    D:---------------------------------------------------------------
    A:---------------------------------------------------------------
    E:-1----3----5----6----------------------------------------------
    
    CHORUS
    G:---------------------------------------------------------------
    D:---------------------------------------------------------------
    A:-3>---------------------------3>----5>----8>---------------------------
    E:------3>----5>----0>----1>---------------------------------------------…
  • INTRO(guitar 1)
    e|--------------------------------------------------------------------|
    B|--------------------------------------------------------------------|
    G|--------------------------------------------------------------------|
    D|---------------X3---------------------------------------------------|
    A|-10-9-7-77-5------10-9-7-77-9---------------------------------------|
    E|--------------------------------------------------------------------|
    
    INTRO(guitar…
  • Tuning: Standard
    
    e|-----------------------------------|---------------------------------------|
    B|-----------------------------------|---------------------------------------|
    G|-----------------------------------|---------------------------------------|
    D|-----------------------------------|----------------------------------x2---|
    A|--00-5p3-33-5p0-00-5p3-33-5p0------|--00-5p3-33-5p0-00-77-00-66------------|
    E|-----------------------------------|---------------------------------------|
    
    e|---------------------------------------|---------|
    B|---------------------------------------|---------|
    G|---------------------------------------|---------|
    D|-----------------------------------x4--|---------|
    A|--00--77--00--55--00--5-3-3-3-5-0------|---------|
    E|---------------------------------------|-0-2-3-5-|…
  • G:-------------------------------------------------------------- 
    D:-------------------------------------------------------------- 
    A:--------------3-3-3--------------5-5-5--------------7-7-7---
    E:--------- -----------------------------------------------------
    
    VERSE:…
  • PART 1
    e|--------------------------------------------------------------------|
    B|--------------------------------------------------------------------|
    G|-3-3-3-3---6-6-6---5------------------------------------------------|
    D|-3-3-3-3---4-4-4---3------------------------------------------------|
    A|-1-1-1-1------------------------------------------------------------|
    E|--------------------------------------------------------------------|
    
    PART…
  • Вступление. Оно то играется на басу, но если у вас его нет, то сгодится гитара с нейлоновыми струнами :)
    
    3|---------------------------------
    4|--5-5-5-55/44-4--5-5-5-2-2-1-1---  играется оно до 20 секунды песни
    5|--7-7-7-77/55-5--3-3-3-2-2-2-2---
    6|---------------------------------…
  • Intro Guitar#1 X8  *=palm-mute
    
    E-----***---***-------|
    B---------------------|
    G---9-999-9-999-9-9---|
    D---9-999-9-999-9-9---|
    A---7-777-7-777-7-7---|
    E---------------------|
    
    Intro Guitar#2 X4  Comes along after 1st intro…
  • e-|-------------------------------------|
    B-|-------------------------------------|
    G-|---5-7-9-12-14-9-9---5-7-9-12-14-9-9-|
    D-|-7-5-7-9-12-14-9-9-7-5-7-9-12-14-9-9-|
    A-|-7-3-5-7-10-12-7-7-7-3-5-7-10-12-7-7-|
    E-|-5-----------------5-----------------|
    
    verse:
    e-|-----------------------------------------------------------------|
    B-|-----------------------------------------------------------------|
    G-|---------5-5-5-5-------------------------5-5-5-5-----------------|
    D-|-7-7-7-7-5-5-5-5-3-3-3-3-5-5-5-5-7-7-7-7-5-5-5-5-3-3-3-3-5-5-5-5-|
    A-|-7-7-7-7-3-3-3-3-3-3-3-3-5-5-5-5-7-7-7-7-3-3-3-3-3-3-3-3-5-5-5-5-|
    E-|-5-5-5-5---------1-1-1-1-3-3-3-3-5-5-5-5---------1-1-1-1-3-3-3-3-|
    
    
    chorus:
    e-|-----------------------------------------------------|
    B-|-----------------------------------------------------|
    G-|-----------------------------------------------------|
    D-|-3-3-3-5-5-5-7-7-7-7-7-7-7-3-3-3-5-5-5-7-7-7-7-7-7-7-|
    A-|-3-3-3-5-5-5-7-7-7-7-7-7-7-3-3-3-5-5-5-7-7-7-7-7-7-7-|
    E-|-1-1-1-3-3-3-5-5-5-5-5-5-5-1-1-1-3-3-3-5-5-5-5-5-5-5-|
    
    e-|-------------------------|
    B-|-------------------------|
    G-|-------------5-5-5-------|
    D-|-3-3-3-5-5-5-5-5-5-9-9-9-|
    A-|-3-3-3-5-5-5-3-3-3-9-9-9-|
    E-|-1-1-1-3-3-3-------7-7-7-|
    
    e-|-----------------------------------------------------|
    B-|-----------------------------------------------------|
    G-|-------------5-5-5-5-5-5-5-------------5-5-5-5-5-5-5-|
    D-|-3-3-3-5-5-5-5-5-5-5-5-5-5-3-3-3-5-5-5-5-5-5-5-5-5-5-|
    A-|-3-3-3-5-5-5-3-3-3-3-3-3-3-3-3-3-5-5-5-3-3-3-3-3-3-3-|
    E-|-1-1-1-3-3-3---------------1-1-1-3-3-3---------------|
    
    e-|-----------------------------------------------|
    B-|-----------------------------------------------|
    G-|-------------5-5-5-5-5-5-5-5--5-5-5-5-4-4-4-4--|
    D-|-3-3-3-5-5-5-5-5-5-5-5-5-5-5--5-5-5-5-4-4-4-4--|
    A-|-3-3-3-5-5-5-3-3-3-3-3-3-3-3--3-3-3-3-2-2-2-2--|
    E-|-1-1-1-3-3-3-----------------------------------|…
  • Verse
    G|-------------------------------------------------------------------------
    D|-------------------------------------------------------------------------
    A|-12-12-12-12-12-12-12-12--8--8--8--8--8--8--8--8-10-10-10-10-10-10-10-10-
    E|-------------------------------------------------------------------------…
  • Intro
    e|---------------------------------------------------------------------------|
    B|---------------------------------------------------------------------------|
    G|-------------7-7-7-----9-9-------------------------------------------------|
    D|-------4-4-4-7-7-7-7-7-9-9-------x2----------------------------------------|
    A|-4-4-4-6-6-6-5-5-5-4-4-7-7-------------------------------------------------|
    E|-5-5-5---------------------------------------------------------------------|
    Verse…
  • INTRO
    GUITAR 1              GUITAR 2
    e|--------------------|-----------------------------------------------|
    B|--------------------|-----------------------------------------------|
    G|----12-10-12--------|-------7---------------------------------------|
    D|-10-12-10-12--X6----|---5^7----3^5----------------------------------|
    A|-10-10-8--10--------|--------------3--------------------------------|
    E|-8------------------|-----------------------------------------------|
    
    VERSE
    e|--------------------------------------------------------------------|
    B|--------------------------------------------------------------------|
    G|----12-10-12-----12-10-12-------------------------------------------|
    D|-10-12-10-12--10-12-10-12---x2--------------------------------------|
    A|-10-10-8--10--10-10-8--10-------------------------------------------|
    E|-8------------8-----------------------------------------------------|…
  • Figure 1:            Figure 2:         Picking between Verses
    e|-----------------------------------|--------------------------------------|
    B|-----------------------------------|--------------------------------------|
    G|-----5-5-----------5-5-2-2-5-5-7-7-|-121212--12-14p12--1212--12-16-14-12--|
    D|-5-5-5-5-5-5-2-2---5-5-2-2-5-5-7-7-|------------------------------------12|
    A|-5-5-3-3-5-5-2-2---3-3-0-0-3-3-5-5-|--------------------------------------|
    E|-3-3-----3-3-0-0-------------------|--------------------------------------|
    
    Bridge
    e|--------------------------------------------------------------------|
    B|--------------------------------------------------------------------|
    G|---------------------7------7-----7-------------------5---7---------|
    D|-5-----5------5------7------7-----7---2---2---2-------5---7---------|
    A|-5-----5------5------5------5-----5---2---2---2-------3---5---------|
    E|-3-----3------3-----------------------0---0---0---------------------|
    I…
  • Regular tuning (E A D G B e)
    
    MAIN RIFF 1 Intro/verse (guitars 1and2)
    e------------------------------
    B------------------------------
    G------------------------------
    D------------------------------
    A--4-4-5-5--5-5--7-7--7--------
    E--2-2-3-3--3-3--5-5--5--------x4
    
    Then…
  • C5   G5   A5   F5   E5
                   E|-----------------------------|
                   B|-----------------------------|
                   G|---5-------------------------|
                   D|---5----5----7----3----2-----|…
  • INTRO(guitar 1)
    e|--------------------------------------------------------------------|
    B|--------------------------------------------------------------------|
    G|--------------------------------------------------------------------|
    D|---------------X3---------------------------------------------------|
    A|-10-9-7-77-5------10-9-7-77-9---------------------------------------|
    E|--------------------------------------------------------------------|
    
    INTRO(guitar…
  • INTRO
    e|--------------------------------------------------------------------|
    B|--------------------------------------------------------------------|
    G|-5-5-5-5------------------------------------------------------------|
    D|-5-5-5-5--8-8-8-8---7-6-7-------------------------------------------|
    A|-3-3-3-3--8-8-8-8---7-6-7-------------------------------------------|
    E|----------6-6-6-6---5-4-5-------------------------------------------|
    
    PART…
  • First of all you play this ska thingie 7 times 
    
    e|-4-4-4-4-4-0-22-2-0--
    B|-4-4-4-4-4-0-22-2-0--
    G|---------------------
    D|---------------------
    A|---------------------
    E|---------------------
    
    then you play this simpleton…
  • RAGGAE PART:
    
    D: ------------------------------------------------------------------------------------------
    G: ----------------------------------------------------------10-10-10-8-8-7--------------
    A: -8-8-8-8---8-8-8-8-8-------8-10-10-10-10-8---------------------------------------
    E:…
  • Verse   X2       *=play 12X    #=play 7X)
    G-----------------------------------------------------------|
    D---------------------------------------------------------|
    A---7*-----------------------------------------------------7#---|
    E-----------------------------7#---5*-----------------------------|…
  • Tuning: Standard
    
               
                 INTRO (Guitar 1)
    e|------------------------------------|
    b|------------------------------------|
    g|-12-12-12-12-12-12-12-12-12-12-12-12|
    d|-12-12-12-12-12-12-12-12-12-12-12-12|
    a|-10-10-10-10-10-10-10-10-10-10-10-10|
    e|------------------------------------|…
  • # intro #A      *=play 64X palm-muted
    E---------------------------------------------------------------------------|
    B-----*---------------------------------------------------------------------|
    G---14----------------------------------------------------------------------|
    D---14----------------------------------------------------------------------|
    A---12----------------------------------------------------------------------|
    E---------------------------------------------------------------------------|
    #…
  • Tuning: Standard
    
    Intro/verse riff - play 1x
    e|-----------------------------------------------------------------| 
    B|-----------------------------------------------------------------| 
    G|---------------------------------------------5--4--2-------------|…
  • Intro
    4X
    
    g----------
    d----------
    a-7-6-5-4-3
    e----------
    
    Verse 1
    
    g------------------------------
    d------------------------------
    a-77777-66666-55555-44444-33333
    e------------------------------
    
    
    Intro to 2nd Verse
    
    
    
    g----------
    d----------
    a----------
    e-7-6-5-4-3
    
    Verse…
  • Intro 4x Guitar 1 
    e-------------
    b-------------
    g-------7-----
    d-7--5--7--7--
    a-7--5--5--7--
    E-5--3-----5--
    
    Guitar 2 comes in after 1 plays intro Twice.
    e-5--3-----5--
    b-5--3--7--5--
    g-6--4--7--6-- 2x
    d-7--5--7--7--
    a-7--5--5--7--
    E-5--3-----5--
    
    HEY…
  • -----------------------------------------------------------  w/ out distortion
    -----------------------------------------------------------
    ---15-17-19-20---------15----------------------------------
    ---------------------16-14----16---------------------------
    -------------------------------------16-17-14-12-----------
    ---------------------------------------------------4-------
    
    w/…
  • e-|------------------------------------------
    B-|------------------------------------------
    G-|-------10-11-11-11--14-12-14-7-5--7-5---5-
    D-|-11-10-10-11-11-11--14-12-14-7-5--7-5-7-5-
    A-|-11-10--8--9--9--9--12-10-12-5-3--5-3-7-3-
    E-|--9--8--------------------------------5---
    
    
    e-|---------------------------------------
    B-|---------------------------------------
    G-|-14-12-14--7-5-7-5---9-10-9-5--5-5-5---
    D-|-14-12-14--7-5-7-5-7-9-10-9-5--5-5-5-7-
    A-|-12-10-12--5-3-5-3-7-7--8-7-3--3-3-3-7-(let…
  • # intro #A   >>>to next page...
    HAPPY GUY                                                                 2/2
    :
    # bridge #A&B X2   *=play 6X   #=play 16X palm-muted  ('Cause he knows...)
    E-------------------------------------------------|
    B----------------*--------------------------------|
    G----*-----*----5------*-----*-----*-----#--------|
    D---7-----3-----5-----5-----7-----8-----3---------|
    A---7-----3-----3-----5-----7-----8-----3---------|
    E---5-----1-----------3-----5-----6-----1---------|
    :…
  • Intro (Gtr. 2 play chords above riff)
        D5            E5            G5           A5 
    e|----------------------------|---------------------------|
    B|--7-5-3-5/7-5---7-5-3-5/7-5-|-7-5-3-5/7-5--7-5-3-5/7-5--|
    G|----------------------------|---------------------------|
    D|----------------------------|---------------------------|
    A|----------------------------|---------------------------|
    E|----------------------------|---------------------------|
    
    Verse…
  • # intro #   (=bend up and release
    E---------------|
    B---------------|
    G---------------|
    D---(-------(---|
    A---7-------7---|
    E---------------|
    :
    # verse # X7
    E---------------------------------------------------|
    B---------------------------------------------------|
    G-------7---7-9-9--9--12-11-12-11-12-11-7--7-9--9---|
    D---9---7---7-9-9--9--12-11-12-11-12-11-7--7-9--9---|
    A---9---5---5-7-7--7--10--9-10--9-10--9-5--5-7--7---|
    E---7-----------------------------------------------|
    :
    #…
  • Intro
    G:---------------------------|----------------------------|
    D:-------------------------5-|----------------------------|
    A:-5h7--7-7-7---5h7--7-7-7---|-5h7--7-7-7---5-7-5---------| 4 times
    E:---------------------------|--------------------7-5-3-0-|
    
    G:---------------|
    D:---------------|
    A:---------------|…
  • Вступление:Am E C
       E         C              G                Am    
    You've got the beauty, but that don't mean a thing
    A bland reciprocation, but that doesn't bother me
    You're happier with lights on underneath a…
  • Вступление:
                                                              
          A       C#m     Hm      C#m
    E|----5--5----4--4----2--2----4--4----
    B|----5----5--5----5--3----3--5----5--
    G|----6-------6-------4-------6-------
    D|----7-------6-------4-------6-------
    A|----7-------4-------2-------4-------
    E|----5-------x-------x-------x-------
    
    Как…
  • e------------------------------------------------
    B------------------------------------------------
    G-5-------------5--------------------------------PM
    D-5-(16)-3------5-(16)-3-------------------------
    A-3------3-(16)-3------3-(16)--------------------
    E--------1-------------1-------------------------
    
    e------------------------------------------------
    B------------------------------------------------
    G-5-------------5--------------------------------
    D-5-hold-3------5-hold-3-------------------------
    A-3------3-hold-3------3-hold--------------------
    E--------1-------------1-------------------------…
  • e>---13--13--13-----16--13------------13-----------------------------
    b>---------------13---------------13------16--13---------------------
    g>--------------------------15^15----------------15----13----13----13
    d>--------------------------------------------------------15----15---
    a>-------------------------------------------------------------------
    a>-------------------------------------------------------------------
    
    
    e>--------------13--11-----------------------------------------------
    b>-----------13--------13--13--13--15----13------------13------------
    g>-13--13--14-------------------------15----15--13--15---------------
    d>---------------------------------------------------------15--------
    a>-------------------------------------------------------------------
    e>-------------------------------------------------------------------…
  • Intro
    G-5-5-5-5-5/10-10/9-9/5-5-5-5-5---
    D-0-0-0-0-0-0-0-0-0-0-0-0-0-0-0---
    A---------------------------------
    E---------------------------------
    
    Upstrokes And Downstrokes
    Are Recommended For The Intro.
    
    Chorus/Bridge
    G--------------------------------------------------
    D-------------------------33333333--------333333333
    A-33333333--------33333333--------33333333---------
    E---------33333333---------------------------------…
  • Chords in this song (mostly powerchords)
           lowhigh
    E	0-2-2-1-0-0
    E7	0-2-0-1-0-0
    E5	0-2-2-x-x-x
    F5	1-3-3-x-x-x
    G5	3-5-5-x-x-x
    G5*	2-5-5-x-x-x
    G#5	4-6-6-x-x-x
    A	0-0-2-2-2-0
    Am	0-0-2-2-1-0
    A5	5-7-7-x-x-x
    A#5	6-8-8-x-x-x
    B5…
  • Verse                                        x4
    G:---------------------------------------------------------------
    D:---------------------------------------------------------------
    A:--3>---------------1>---------------------------------------
    E:--------3>---1>---------------------------------------------…
  • # intro #A&B   %=pause     /x=B takes pick-slide
    E----------------------------------------------/------------|
    B------------------------------------------------------------|
    G---7-9----------5---5-------------7-9---------5---5---------|
    D---7-9----------5-5-5-5-5-5-2-----7-9-----5---5-5-5-5-5-5---|
    A---5-7-%%%%%%%%-3-5-3-5-5-5-2-%%%-5-7-%%%-5---3-5-3-5-5-5---|
    E------------------3---3-3-3-0-------------3-----3---3-3-3---|
    :
    #…
  • This is the guitar part at the beginning
        --10--9---10--7--6-------------------------------------
        --12--10--10--8--7-------------------------------------
        -------------------------------------------------------…
  • # intro #A   /x=palm-muted   %=pause               >
    E---------------------------------------------/---->
    B--------------------------------------------------->
    G---5-----------------------------------------6-6-6->
    D---5-----------------------------------------6-6-6->
    A---3-----------------------------------------4-4-4->
    E--------------------------------------------------->
    #…
  • # intro #A&B X2 !play all notes X6!  %=pause  !pick-slide last time!
    E-----------------------------------|
    B-----------------------------------|
    G--14-------------------------------|
    D--14-------2-------4-------7---7---|
    A--12-%%%%%-4-%%%%%-5-%%%%%-7---7---|
    E---------------------------5---5---|
    :
    #…
  • ------------------------------------|----------------------------------------- 
    ------------------------------------|----------------------------------------- 
    ------------------------------------|-----------------------------------------…
  • intro:
    
    -|----------------------------------------------------------------------------
    -|----------------------------------------------------------------------------
    -|-14-----12----14----12------------------------------------------------------
    -|-14-----12----14----12------------------------------------------------------
    -|-12-----10----12----10------------------------------------------------------
    -|----------------------------------------------------------------------------…
  • Standard tuning: E A D G
    
    Intro: (bass only)
    G-----------------------------------------
    D-----------------------------------------
    A-----------------------------------------
    E---7-7-7-----5-5-5-----7-7-7-----5-5-5---
    
    then…
  • INTRO:
    e|---------------------------------------------------------------------------|
    B|---------------------------------------------------------------------------|
    G|-------------------------10-10-10-10-10-10-10-10-10------------------------|
    D|--X-X-XX-7-7-7-7-7-7-7-7-10-10-10-10-10-10-10-10-10---------(2x)-----------|
    A|--X-X-XX-7-7-7-7-7-7-7-7-8--8--8--8--8--8--8--8--8-------------------------|
    E|--X-X-XX-5-5-5-5-5-5-5-5---------------------------------------------------|
    
    e|---------------------------------------------------------------------------|
    B|---------------------------------------------------------------------------|
    G|--------------------12-12-12-12-12-12-10-10-10-10-10-10-10-10-10-10-10-10--|
    D|--7-7-7-7-7-7-7-7-7-12-12-12-12-12-12-10-10-10-10-10-10-10-10-10-10-10-10--|
    A|--7-7-7-7-7-7-7-7-7-10-10-10-10-10-10-8--8--8--8--8--8--8--8--8--8--8--8---|
    E|--5-5-5-5-5-5-5-5-5--------------------------------------------------------|
    
    VERSE:…
  • riff 1 
     
    G-------------------------------------------------------------
    D ----2--3--2---5--3--2--0----------0--2--3--2--0--2   (x2)
    A -3-----------------------------0--3-----------------------
    E-------------------------------------------------------------…
  • # intro # X6  !GuitarB plays X5 and takes pauses and goes octave after 3X!
    E----------------------------------------------------------------------------|
    B----------------------------------------------------------------------------|
    G---12-12-12-12-11-11-11-11-9-9-9-7-7-7-7-7----------------------------------|
    D---12-12-12-12-11-11-11-11-9-9-9-7-7-7-7-7-5-5-5-5-4-4-4-4-2-2-2-2-2-2-2-2--|
    A---10-10-10-10--9--9--9--9-7-7-7-5-5-5-5-5-5-5-5-5-4-4-4-4-2-2-2-2-2-2-2-2--|
    E-------------------------------------------3-3-3-3-2-2-2-2-0-0-0-0-0-0-0-0--|
    :
    #…
  • G|----------------------------------------------------------------| cont.
    D|------------------------------------------------------------------
    A|-7777-xx-77-77-77-0-3333-5555-0-7777-xx-77-77-77-0-7777-5555----|
    E|----------------0-----------0------------------0--------------|
    
    
    G|---------------------------------------------------------|
    D|-------------------------------------------------------------
    A|-7777-xx-77--77-77-0--3333---------0--5555-5555-33333333-------|
    E|-----------------0-----------0--------3333--------------------3/----|
    
    G]-----------------------------------------------
    D]------------------------------------------------
    A]------------------------------------------------
    E]---0-5-7-0-5-7-0-5-7---------------------
    
    Chorus
    G|-----------------------------------------------------------------------|
    D|---------------------------------------------------------------------|
    A|------------------------------33333333-55555555----------|
    E|-33333333-0000--------------------------------------------|
    
    Then…
  • # intro #
    E----------------------------------------------------------------------------|
    B---------------------------------5-----------2------------------------------|
    G-------------------------------5---5-------2---2---------------------4------|
    D-----------------------------5-------5---2-------2-----------------5---5----|
    A---3-3-3-3-3-3-2-2-2-2-2-2-3-----------0-----------2-2-2-2-2-2---5-------5-0|
    E---------------------------------------------------------------3------------|
    :
    #…
  • Intro
    G:---------------------------------------------------------------
    D:---------------------------------------------------------------
    A:---------------------------------------------------------------
    E:-5-5-5-5--3-3-3-3--1-1-1-1--3-2--0-0-0-0----------
    
    G:---------------------------------------------------------------
    D:---------------------------------------------------------------
    A:---------------------------------------------------------------
    E:-5-5-5-5-3-3-3-3-1-1-1-1-3-2-0-0-0-0-0-0-0-0---…
  • # intro #A    (let ring!)
    E-------------------------------------------------|
    B---17--------------------------------------------|
    G-------------------------------------------------|
    D-------------------------------------------------|…
  • # intro #      =slide down
    E-------------------------------------|
    B-------------------------------------|
    G---9--------------------------------|
    D---9-----10------9-----------------|
    A---7-----10------9-------2---------|
    E-----------8------7---------3-2-0---|
    :
    #…
  • Intro+Solo thingy
    E--------------------------------------------]
    B--------------------------------------------]
    G--------------------------------------------]
    D--------------------------------------------]
    A------------------------------------3-2-----]…
  • Intro (x4)
    G|---------------------------------------------------------------|
    D|---------------------------------------------------------------|
    A|-12-12-12-12--12-12-12-12--12-12-12-12--12-12-12-12-(/)-On 4th-|
    E|---------------------------------------------------------Time--|
    
    Intro…
  • Guitar#1(eric)   INTRO  
    e|--------------------------------------------------------------------|
    B|--------------------------------------------------------------------|
    G|--------------------------------------------------------------------|
    D|---5-------5-------5-------5----------------------------------------|
    A|---------------------------------57-7-777-777-777-777-777-777-777--|
    E|-------3-------3-------3---------35-5-555-555-555-555-555-555-555--|
    
    
    after…
  • x means to mute string
    
    intro:
    E---------------------------------------------------------------
    B---------------------------------------------------------------
    G-9---9-7-6-7-----9---9-7-6-7-----9---9-7-6-7-----9---9-7-6-----
    D---7---------------7---------------7---------------7-------7---
    A---------------------------------------------------------------
    E---------------------------------------------------------------
    
    verse:
    E-----------------------------------------------------------------------
    B-----------------------------------------------------------------------
    G------------------9999999999999999-7777777777777777-9999999999999999---
    D-7777777777777777-9999999999999999-7777777777777777-9999999999999999---
    A-7777777777777777-7777777777777777-5555555555555555-7777777777777777---
    E-5555555555555555------------------------------------------------------
    
    chorus:
    E------------------------------------
    B------------------------------------
    G-------------77-xx-77-xx-77-xx-77-xx
    D-44-xx-22-xx-77-xx-77-xx-77-xx-77-xx
    A-44-xx-22-xx-55-xx-55-xx-55-xx-55-xx
    E-22-xx-00-xx------------------------…
  • Tuning:         E
                    B
                    G
                    D
                    A
                    D        Drop low E whole step
    
    
      ___ ___ ___ ___
      | | | | | | | |
    :-------------------:
    :-------------------:
    :*-----------------*:
    :*-----------------*:
    :--4-4-5-5-5-5-7-7--:
    :--4-4-5-5-5-5-7-7--:…
  • Intro x1
    e|------------------------------------------|
    B|------------------------------------------|
    G|----------10-12---------10-12-10----12----|
    D|--10------10-12-10------10-12-10----12----|
    A|--10-------8-10-10-------8-10--8----10----|
    E|---8-------------8------------------------|
    
    
    e|------------------------------------------|
    B|------------------------------------------|
    G|----------10-12---------------------------|
    D|--10------10-12---------------------------|
    A|--10-x8----8-10---------------------------|
    E|---8--------------------------------------|
    
    
    e|--xx1--xx1--xx3--xx3--xx8--xx8--xx5--xx5--|
    B|--xx1--xx1--xx3--xx3--xx8--xx8--xx5--xx5--|
    G|------------------------------------------|
    D|------------------------------------------|
    A|------------------------------------------|
    E|------------------------------------------|
    
    e|------------------------------------------|
    B|------------------------------------------|
    G|------------------------------------------|
    D|------------------------------------------|
    A|----5---…
  • Verse
    -------------------------------------------------------------------------
    -------------------------------------------------------------------------
    ----2--2--2--2--2--2--2--2--2-----------------7--7--7--7-----------------
    -------------------------------2--2--2--2--2--------------7--7--7--7--2--
    Orthapedic,…
  • Intro
    
    G:---------------------------------------|------------------------
    D:---------------------------------------|------------------------
    A:-------------4-5-5-5-4-----------------|-------4-5-5-5-4--------
    E:-12--0-0-0-----------5-5-5-5-5-5-5-4-|-0-0-0------------------
    
    Verse…
  • -|--------------------------|----22----22----22--------|---------------------
    -|-00-77----77----77-0---3-0|-00----33----22----0---3-0|---------------------
    -|-------88----77------0----|---------------------0----|---------------------
    -|--------------------------|--------------------------|---------------------…
  • G:---------------------------------------------------------------
    D:---------------------------------------------------------------
    A:---------------------------------------------------------------
    E:-7-7-7-7-7-7-7--5--3-3-3-3-3-3-3--2-----------------
    
    
    G:---------------------------------------------------------------
    D:---------------------------------------------------------------
    A:---------------------------------------------------------------
    E:-5-5-5-5-5-5-5-5-5-5--2-2-2-2-2-2-2-2-2-2-------…
  • Verse:
    
    e|---------------------------------------------------------------------------|
    B|---------------------------------------------------------------------------|
    G|---------------------------------------------------------------------------|
    D|---10---7---------10----7-----8----10---12----10----8----11----------------|
    A|---8----5----8----8-----5-----8----10---12----10----8----9-----------------|
    E|-------------6----------------6----8----10----8-----6----9-----------------|
    
    Bridge:
    
    
    a|---------------------------------------------------------------------------|
    B|---------------------------------------------------------------------------|
    G|---10---10---10---7--------------------------------------------------------|
    D|---10---10---10---7--------------------------------------------------------|
    A|----8---10----8---5--------------------------------------------------------|
    E|---------------------------------------------------------------------------|
    
    Chorus:
    
    a|--------------------------------|
    B|--------------------------------|
    G|--------------------------------|
    D|---8------3------10-----12------|
    A|---8------3------10-----12------|
    E|---6------1------8-------9------|
    
    a|--------------------------------|
    B|--------------------------------|
    G|--------------------------------|
    D|---8------8------10-----12------|
    A|---8------8------10-----12------|
    E|---6------5------8------10------|
    
    a|--------------------------------|
    B|--------------------------------|
    G|--------------------------------|
    D|---8------3------10-----12------|
    A|---8------3------10-----12------|
    E|---6------1------8------10------|
    
    a|------------|
    B|------------|
    G|------------|
    D|8------11~--|
    A|8------11~--|
    E|6-------9~--|
    
    Ending:
    
    E|-----------------|
    A|-----------------|
    D|-----------------|
    G|---8~--11~--3~---|
    B|---8~--11~--3~---|
    E|---6~--9~---1~---|…
  • Intro
    e|-2---2---2------2---2---2--------------------------------------------------|
    B|-3-2-3-2-3-2----3-2-3-2-3-2------------------------------------------------|
    G|-2-2-2-2-2-2-1--2-2-2-2-2-2--7-9-------------------------------------------|
    D|---2---2---2-2----2---2---2--7-9--7-----7-7-7-7-7-7-7-7-7-7----------------|
    A|-------------2---------------5-7--7-----7-7-7-7-7-7-7-7-7-7----------------|
    E|----------------------------------5-----5-5-5-5-5-5-5-5-5-5----------------|…
  • PART 1
    e|--------------------------------------------------------------------|
    B|--------------------------------------------------------------------|
    G|--------------------------------------------------------------------|
    D|-7--5--8---5-7-5-8-5--7-7-7-7-7-7-7-7--5--8-8-8-8-8-8-8-8--5--------|
    A|-7--5--8---5-7-5-8-5--7-7-7-7-7-7-7-7--5--8-8-8-8-8-8-8-8--5--------|
    E|-5--3--6---3-5-3-6-3--5-5-5-5-5-5-5-5--3--6-6-6-6-6-6-6-6--3--------|
    
    e|--------------------------------------------------------------------|
    B|--------------------------------------------------------------------|
    G|--------------------------------------------------------------------|
    D|-7-7-7-7-7-7-7-7--5--3-3-3-3-3-3-3-3--------------------------------|
    A|-7-7-7-7-7-7-7-7--5--3-3-3-3-3-3-3-3--------------------------------|
    E|-5-5-5-5-5-5-5-5--3--1-1-1-1-1-1-1-1--------------------------------|
    
    PART…
  • intro...
    e-----------------------------------------|
    B-----------------------------------------|
    G-----------------------------------------|
    D-----------------------------------------|
    A-3-----------3-----------3-----------3---|
    E-|-5-3-0-3-5---5-3-0-3-5---5-3-0-3-5---5-3-0-3-5-----|
    
    
    e------------------------------------------------------------|
    B------------------------------------------------------------|
    G-|-14-12-14-12-14-17-14-12-14-12-14-17-14-12-14-12-14-17-14-17-19-14-17-|
    D-|-14-12-14-12-14-17-14-12-14-12-14-17-14-12-14-12-14-17-14-17-19-14-17-|
    A-|-12-10-12-10-12-15-12-10-12-10-12-15-12-10-12-10-12-15-12-15-17-12-15-|
    E------------------------------------------------------------|
    this…
  • G-|--------------------------------------------------------------------------------------------
    D-|--------------------------------------------------------------------------------------------
    A-|--------------------------------------------------------------------------------------------
    E-|--8-5-5-5-5-5-5-5--8-5-5-5-5-5-5-5--8-5-5-5-5-5-5-5--8-5-5-5-5-5-5-5-
    
    G-|-----------------------------------------------------------------------------------------------------
    D-|-----------------------------------------------------------------------------------------------------
    A-|-7-5-7--8-10--8-10-12-7-5-7--8-10--8-7-7-5-7--8-10--8-10-12-7-5-7-10--8-7-
    E-|-----------------------------------------------------------------------------------------------------
    
    G-|----------------------------------------------------------------------------------------------------
    D-|----------------------------------------------------------------------------------------------------
    A-|-7-5-7--8-10--8-10-12-7-5-7--8-10--8-7-7-5-7--8-10--8-10-12-7-5-7--8--8--8
    E-|-----------------------------------------------------------------------------------------------------
    
    G-|-------------------------------------------------------------------------------------------
    D-|-------------------------------------------------------------------------------------------
    A-|----------------5-5-3----------------5-5-3---------------5-5-3----------------5-5-3-
    E-|--8-5-5-5-5----------8-5-5-5-5----------8-5-5-5-5----------8-5-5-5-5---------
    
    G-|-------------------------------------------------------------------------------------------
    D-|-------------------------------------------------------------------------------------------
    A--|-10--8-7--8-7-5-------------------------10--8--7--8-7--5------------------------
    E-|------------------------8-5-5-5-5-5-5-5--------------------------8-5-5-5-5-5-5-5
    
    G-|-------------------------------------------------------------------------------------------
    D-|-------------------------------------------------------------------------------------------
    A-|-10--8--7--8--7-5-------------------------10--8--7--8-7-5--8--7--8--7-5------
    E-|------------------------8--5-5-5-5-5-5-5-----------------------------------------8---
    
    G-|-----------------------------------------------------------------------------------------------
    D-|-----------------------------------------------------------------------------------------------
    A-|------------------5-5-3------------------5-5-3-------------------5-5-3--8-7---8-7-5--
    E-|--8--5-5-5-5------------8-5-5-5-5-----------8-5-5-5-5------------------------------8
    
    G-|----------------------------|
    D-|----------------------------|
    A-|---------------4-------------|
    E-|-5--5--5--5---------------|
    
    G-|--------------------------------------------------------------------
    D-|--------------------------------------------------------------------
    A-|------------------------4--------------------------------------4--
    E-|-7-7-7-7-7-7-7-7------------------7-7-7-7-7-7-7-7------
    
    G-|----------------------------------------------------------------
    D-|----------------------------------------------------------------
    A-|-----------------------4------------------------------------4-
    E-|-7-7-7-7-7-7-7-7------------------7-7-7-7-7-7-7-7--
    
    G-|------------------------------------------------------------------------------------------------
    D-|------------------------------------------------------------------------------------------------
    A-|-3-3-3-3--------------8--8--8--8-----5-5-5-5----------------------3-3-3-3-5-5-5-5-
    E-|------------5-5-5-5-------------------------------5-5-5-5-5-5-5-5-----------------------
    
    G-|--------------------------------------------------------------------------------
    D-|---------------------------------------------------------------------------------
    A-|-3-3--8--8--8--8--8--8--8--8------------12-10-------10--8--------10-
    E-|-------------------------------------------5-5----------5-5----------5-5-----
    
    G-|-------------------------------|
    D-|-------------------------------|
    A-|---------------4--------------|
    E-|-5--5--5--5-----------------|
    
    G-|--------------------------------------------------------------------
    D-|--------------------------------------------------------------------
    A-|----------------------4--------------------------------------4----
    E-|-7-7-7-7-7-7-7-7------------------7-7-7-7-7-7-7-7------
    
    G-|-------------------------------------------------------------------
    D-|--------------------------------------------------------------------
    A-|--------------------------4------------------------------------4--
    E-|-7-7-7-7-7-7-7-7------------------7-7-7-7-7-7-7-7------
    
    G-|--------------------------------------------------------
    D-|--------------------------------------------------------
    A-|-3-3--8-7--8---5-3--5-7---7-3-5--8--8--8--8-
    E-|--------------------------------------------------------
    
    G-|-----------------------------------------------------------------------------------------------
    D-|------------------------------------------------------------------------------------------------
    A-|-3-3-3-3-------------8--8--8--8----5-5-5-5-----------------------3-3-3-3-5-5-5-5-
    E-|------------5-5-5-5------------------------------5-5-5-5-5-5-5-5-----------------------
    
    G-|----------------------------------------------------------------------------------------------------------
    D-|----------------------------------------------------------------------------------------------------------
    A-|-3-3--8--8--8--8-----------12-10-------10--8-------10------12-10--------10--8--------10-
    E-|-------------------------5-5----------5-5-----------5-5-----5-5----------5-5------------5-5------
    
    G-|----------------------------------------------|
    D-|----------------------------------------------|
    A-|--8--7--8--7-5-3--8-7--8--7--5--3----|
    E-|-------------------------------------------5-|…
  • # intro #  (=bend up         # verse #  X4 *=play 10X #=play 6X  before start!
    E------------------------|   E---------------------------------------------|
    B-----------(------------|   B----*---------*---------#-----------------*--|
    G-----------9--7---------|…
  • Intro -                    x4
    |---------------------------|
    |*-------------------3-3-3-*|
    |*-3-3-3-0-0-0-------------*|
    |--------------3-3-3--------|
    
    Verse -
    |-----------------------------------------------------------------|
    |---------3-3-3-3-------------------------5-5-5-5-3-3-3-3-3-3-3-3-|
    |-3-3-3-3---------3-3-3-3-3-3-3-2---------------------------------|
    |---------------------------------5-5-5-5-------------------------|
    
    |---------------------------------------------------------|
    |---------3-3-3-3-------------------------3-3-3-3-3-3-3-3-|
    |-3-3-3-3---------3-3-3-3-3-3-3-2-------------------------|
    |---------------------------------5-5-5-5-----------------|…
  • # intro #A&B X2     (That chord thing in the beginning is bass)                    
    E-----------------------------------|   
    B-----------------------------------|   
    G---9-------7-------7-------7-6-6---|   
    D---7-------7-------7-------7-7-7---|…
  • intro                                              x2
    G:---------------------------------------------------------------
    D:---------------------------------------------------------------
    A:--2-2-2-2-2--4-4-4-4-4---------------2-2-2-2-2------
    E:-------------------------------0-0-0-0-0--------------------…
  • Clean tone intro
    
    e--------------------------------------------------------|
    b--------------------------------------------------------|
    g--------------------------------------------------------|
    d-5-5-4--5-5-4--5-5-4--5-5-5--5-5-4--5-5-4--5-5-4--5-5-5-|
    a-5-5-5--5-5-5--5-5-5--5-5-5--5-5-5--5-5-5--5-5-5--5-5-5-|
    e--------------------------------------------------------|
    
    e-----------------------------------------------------------|
    b-----------------------------------------------------------|
    g-----------------------------------------------------------|
    d-5-5-4--5-5-4--5-5-4--5-5-5--5-5-4--5-5-7--9-9-4-5-7-5-5-5-|
    a-5-5-5--5-5-5--5-5-5--5-5-5--5-5-5--5-5-5--7-7-5-5-5-5-5-5-|
    e-----------------------------------------------------------|
    
    Distortion…
  • INTRO Guitar 1
    e|--------------------------------------------------------------------|
    B|--------------------------------------------------------------------|
    G|-3-3-3-3-3-3-3-3-3-3-3-3-3-3-3-3-3-3-3-3-3-3-3-3-3-3-3-3-3-3-3-3----|
    D|-3-3-3-3-3-3-3-3-3-3-3-3-3-3-3-3-3-3-3-3-3-3-3-3-3-3-3-3-3-3-3-3----|
    A|-1-1-1-1-1-1-1-1-1-1-1-1-1-1-1-1-1-1-1-1-1-1-1-1-1-1-1-1-1-1-1-1----|
    E|--------------------------------------------------------------------|…
  • Typical MR-song with strange ending.
    :
    # intro #   !pick-slide!
    E------------------------------------------------------|
    B------------------------------------------------------|
    G-------------7-------------9-------------7------------|
    D---9--7-9--9-7-7-9--7-9--9-9-9-9--7-9--9-7-7-9--7-9---|
    A---9--7-9--9-5-7-9--7-9--9-7-9-9--7-9--9-5-7-9--7-9---|
    E---7--5-7--7---5-7--5-7--7---7-7--5-7--7---5-7--5-7---|
    :
    #…
  • e-|---------|----------------------------------------------
    B-|---------|----------------------------------------------
    G-|----7----|--------------------------------------------9-
    D-|-7--7--7-|----------------3-4-3-4-3----5-6-5-6-5---7----
    A-|-7--5--7-|---2-3-2-3-2--5------------7-----------7------
    E-|-5-----5-|-5--------------------------------------------
    
    e-|-----------------------------------------------
    B-|-----------------------------------------------
    G-|---------------------------------------------9-
    D-|-----------------3-4-3-4-3----5-6-5-6-5---7----
    A-|----2-3-2-3-2--5------------7-----------7------
    E-|--5--------------------------------------------
    
    e-|------------------------------------------------------|
    B-|------------------------------------------------------|
    G-|---5-9-----10-9---------------------------------------|
    D-|-7-5-9-9-7-10-9-10-10-10-7-x-7-x-7-7-7--7-x-7-x-7-7-7-|
    A-|-7-3-7-9-7--8-7-10-10-10-7-x-7-x-7-7-7--7-x-7-x-7-7-7-|
    E-|-5-----7-5-------8--8--8-5-x-5-x-5-5-5--5-x-5-x-5-5-5-|
    
    e-|--------------------------------------------------------|
    B-|--------------------------------------------------------|
    G-|-----------------5-5-5-5-5-5-5-5------------------------|
    D-|-7-7-7-7-7-7-7-7-5-5-5-5-5-5-5-5-5-5-5-5-5-5-5-5--3--5--|
    A-|-7-7-7-7-7-7-7-7-3-3-3-3-3-3-3-3-5-5-5-5-5-5-5-5--3--5--|
    E-|-5-5-5-5-5-5-5-5-----------------3-3-3-3-3-3-3-3--1--3--|
    
    e-|-----------------------------------------------
    B-|-----------------------------------------------
    G-|---------------------------------------------9-
    D-|-----------------3-4-3-4-3----5-6-5-6-5---7----
    A-|----2-3-2-3-2--5------------7-----------7------
    E-|--5--------------------------------------------
    
    e-|-------------------------------------------------------------
    B-|-------------------------------------------------------------
    G-|---5------------------5-x-5-x--------------------------------
    D-|-7-5-5--3--5--7-x-7-x-5-x-5-x-5-x-5-x--3-x-5-x-7-x-7-x-7-7-7-
    A-|-7-3-5--3--5--7-x-7-x-3-x-3-x-5-x-5-x--3-x-5-x-7-x-7-x-7-7-7-
    E-|-5---3--1--3--5-x-5-x---------3-x-3-x--1-x-3-x-5-x-5-x-5-5-5-
    
    
    e-|---------------------------------------------
    B-|---------------------------------------------
    G-|-----------------------------5-5-x-----------
    D-|-3-3-x-5-5-x-7-7-x-7-7-3-3-x-5-5-x-5-x-5-x-5-
    A-|-3-3-x-5-5-x-7-7-x-7-7-3-3-x-3-3-x-5-x-5-x-5-
    E-|-1-1-x-3-3-x-5-5-x-5-5-1-1-x-------3-x-3-x-3-
    
    
    e-|-----------------------------------------------------------
    B-|-----------------------------------------------------------
    G-|-----------------------------------5-5-5-5-5-5-7-7-7-7-7-7-
    D-|-3-3-x-5-5-x-7-7-x-7-7-3-3-3-3-3-3-5-5-5-5-5-5-7-7-7-7-7-7-
    A-|-3-3-x-5-5-x-7-7-x-7-7-3-3-3-3-3-3-3-3-3-3-3-3-5-5-5-5-5-5-
    E-|-1-1-x-3-3-x-5-5-x-5-5-1-1-1-1-1-1-------------------------
    
    e-|-----------------------------------------------------|
    B-|-----------------------------------------------------|
    G-|-10-10-10-10-10-10-10-10-10-10-10-10-10-10-10-10-10--|
    D-|-10-10-10-10-10-10-10-10-10-10-10-10-10-10-10-10-10--|
    A-|--8--8--8--8--8--8--8--8--8--8--8--8--8--8--8--8--8--|
    E-|-----------------------------------------------------|
    
    
    e-|-------------------------------------------------
    B-|-------------------------------------------------
    G-|-------------------------------------------------
    D-|-------------------------------------------------
    A-|---2-3-2-3-2---3-2-3-2-3---2-3-2-3-2---3-2-3-2-3-
    E-|-5-----------5-----------5-----------5-----------
    
    
    e-|--------------------------------------
    B-|--------------------------------------
    G-|--------------------------------------
    D-|-7-5-3-5-7----------------------------
    A-|-7-5-3-5-7-2-3-2-3-2------2-3-2-3-2---
    E-|-5-3-1-3-5-----------5--5-----------5-
    
    this…
  • Background chords:  Bm  F#  A  E  G  D  Em  F#  (same as verse chords)
    
    e:-------------------------------------------9-10-12-12-12-12-10-9----10-9---|
    B:-----------------------------------------------------------------12------12|
    G:-------9-9-9-9-------9-----------------------------------------------------|
    D:8-9-11---------12-11---12-11-12-11-9-8-------------------------------------|
    A:---------------------------------------------------------------------------|
    E:---------------------------------------------------------------------------|…
  • # intro #     *=play 6X
    E-----------------------------------------------------------------------|
    B-----------------------------------------------------------------------|
    G---9-9-9-9---7-7-7-7---4-4-4-4---5-5-5-5---7-9---7-7--12-9-9-9-9-9-9---|
    D---9-9-9-9---7-7-7-7---4-4-4-4---5-5-5-5---7-9---7-7--12-9-9-9-9-9-9---|
    A---7-7-7-7---5-5-5-5---2-2-2-2---3-3-3-3---5-7---5-5--10-7-7-7-7-7-7---|
    E-----------------------------------------------------------------------|
    :
    #…
  • # intro #A&B
    E----------------------------------------------------------------------------|
    B----------------------------------------------------------------------------|
    G--------------------6--7---------------------------6--7---------------------|
    D---7--5-7-----2--3--6--7---------7--5-7---5-4-3-2--6--7---------------------|
    A---7--5-7-----2--3--4--5---------7--5-7---5-4-3-2--4--5---------5-5-5-5-5-5-|
    E---5--3-5-----0--1---------------5--3-5---3-2-1-0---------------------------|
    :
    #…
  • # intro #
    E---------------------------------------------------------|
    B---------------------------------------------------------|
    G---9-------------------------9---------------------------|
    D---9-------------------------9---------------------5-4---|
    A---7-------------------------7---------------------5-4---|
    E---------------------------------------------------3-2---|
    :
    #…
  • # intro #A X2 *=play 6X   # verse #A&B *=play 6X
    E-------------------|     E--------------------------------------|
    B-------------------|     B----*---------------*-----------------|
    G----*-------*---*--|     G---7--------*---*--7--------*---*-----|
    D---7----*--2---2---|…
  • # verse #A&B  #=play 16X palm-muted     # pre-chorus #A&B *=play 12X
    E---------------|                       E-------------------------------|
    B----#----------| *=play 12X            B----*--------------------------|
    G---7--------*--|…
  • Verse
    ------------------------------------------------------------------------------
    ------------------------------------------------------------------------------
    ---------------------5-5-5-5--------------------------------------------------
    -3-3-3-3---5-5-5-5---5-5-5-5---7-7-7-7----------------------------------------
    -3-3-3-3---5-5-5-5---3-3-3-3---7-7-7-7----------------------------------------
    -1-1-1-1---3-3-3-3-------------5-5-5-5----------------------------------------…
  • # intro #A
    E----------------------------------------------------------------------------|
    B----------------------------------------------------------------------------|
    G----------------------------------------------------------------------------|
    D--10------------------------------------------------------------------------|
    A--10------------------------------------------------------------------------|
    E---8------------------------------------------------------------------------|
    #…
  • # intro #A&B X4 *=play 16X palm-muted    # intro2 #A&B
    E---------------|                        E----------------------------------|
    B----*----------|                        B----------------------------------|
    G---7-------5---|…
  • Intro
    e----------------------------------------------------------------
    b----------------------------------------------------------------
    g----------------------------------------------------------------
    d----4-4-4-3-----3-3-3-3-3-3----3-3-3-4-----4-4-4-4-4-4----------
    a----4-4-4-4-----4-4-4-4-4-4----1-1-1-2-----2-2-2-2-2-2----------
    e----------------------------------------------------------------
    
    play…
  • ---------------------------------------------------------------------------------
    -------------------------------------------------------------------------------
    -1111-00-1111-00--1111-0-4-5-1-0-4-5-1-----1111-00-----------------------------
    ---------------------------------------------------------------------…
  • Tuning: Standard (E A D G)Intro
    G|------------------------------------------------------------||
    D|------------------------------------------------------------||
    A|----1212121212121212-1111111111111111-1010101010101010------||
    E|-0/5--------------------------------------------------------||
    
    G|------------------------------------------------------------||
    D|------------------------------------------------------------||
    A|-99999999-88888888-55555555-33333333------------------------||
    E|-------------------------------------00000000---------------||
    
    Verse
    
    G|-------------------------------------------------------------------------||
    D|----------------------------------------------33333333----------333333---||
    A|----------------------------33333333-55555555----------55555555----------||
    E|-55555555-33333333-55555555----------------------------------------------||
    
    Chorus
    
    G|---------------------------------------------------------------------------||
    D|---------------------------------------------------------------------------||
    A|-33333333333333333333333322222222-00000000---------------------------------||
    E|-------------------------------------------33333333-1111111111111111-------||
    
    
    G|---------------------------------------------------------------------------||
    D|---------------------------------------------------------------------------||
    A|--------------------------------------------------55555555-33333333--------||
    E|-0/5-55555555-44444444-33333333-22222222-11111111-------------------0000000||
    
    then…
  • Riff 1
    e----0---0---0-0--------------------------------------------------
    B----1---0---2-2--------------------------------------------------
    G----0---1---2-2---------5---5------------------------------------
    D--2-2-2-2-2-2-2---3--5--5-5-5------------------------------------
    A--3---2---0-------3--5--3-5-3------------------------------------
    E-----------------1--3-----3--------------------------------------
    
    
    Riff…
  • # intro #A&B
    E-----------------------------------------------------|
    B-----------------------------------------------------|
    G-------7-9----------12-9-----------7-9-----------7---|
    D--10---7-9------10--12-9------10---7-9------10---7---|
    A--10---5-7------10--10-7------10---5-7------10---5---|
    E---8-------------8-------------8-------------8-------|
    :
    #…
  • 2 guitars-FAST AND JAZZY
    (listen to song for strumming
     and timing)
    
    E--------3-----------------
    B--------3----------------3
    G-2-4-2--4—2-4-2---2-0-2---
    D-0-0-0--5-0-0-0---^fill---
    A--------5-----------------
    E--------3-----------------…
  • # intro # X8
    E---2---|
    B---3---|
    G---2---|
    D---0---|
    A-------|
    E-------|
    :
    # main # X4   !play every note X4!      *=play 2X
    E---2-----2-----2-----3-----2-----2-----2-----3-----2-----0-----0--3---|
    B---3-----2-----3-----3-----3-----2-----3-----3-----3-----3-----3--2---|
    G---2-----3-----4-----0-----2-----3-----4-----0-----2-----1-----0--2---|
    D---0-----4-----4-----0-----0-----4-----4-----0-----0-----0-----2---*--|
    A----------------------------------------------------------------*-----|
    E----------------------------------------------------------------------|…
  • This isn't actually a guitar solo it's really that cool trumpet
    part that gets stuck in your head. 
    
    e|---------------------------------------------------------------------------|
    B|---------------------------------------------------------------------------|
    G|---------------------------------------------------------------------------|
    D|---------------4-4-4-4-4-2-0-2---------------------------------------------|
    A|-2-2-2-0-2-3-0--------------2--2-2-2-0-2-3-0-7-7-7-7-7/9-7-5-7-------------|
    E|------------------------------------------------------------7--------------|
    
    
    I…
  • Intro:
    
      p.m.
     |---------| |--------------| |-------------| |-------------| |-----|
        C                Am              F               G
    e|----------0----------------0---------------1---------------1------|
    B|--------1---1------------1---1-----------1---1-----------0---0----|
    G|------0-------0--------2-------2-------2-------2-------0-------0--|…
  • # intro #A&B
    E-----------------------------|
    B-----------------------------|
    G---14-14-14-14-14-14-14-14---|
    D---14-14-14-14-14-14-14-14---|
    A---12-12-12-12-12-12-12-12---|
    E-----------------------------|
    :
    # verse #A X2…
  • TUNE: E  A  D G.
    
    Riff 1:
    
    |-------------------------------------------------------------------------- 
    |------------------------------10-----8-7------8---------8------10----8-10-
    |----5-5-8-5-5-5-8-5-8-8--8-8-8------------------8-8----8-8-8--------------
    |-------------------------------------------6-6---6--6-6-------------------
    
    Riff…
  • Chords used:
    E----------------------------------|
    B----------------------------------|
    G---5-----------7---10---13--------|
    D---5---2---7---7---10---13----5---|
    A---3---2---7---5----8---11----5---|
    E-------0---5------------------3---|…
  • intro
    e|---------------------------------------------------------------------------
    B|---------------------------------------------------------------------------
    G|-4-4-4-4-4-4-4-4-----------------------------------------------------------
    D|-4-4-4-4-4-4-4-4-----4-4-4-4-4-4-4-4---------------------------------------
    A|-2-2-2-2-2-2-2-2-2-2-4-4-4-4-4-4-4-4--x2-----------------------------------
    E|-----------------0-0-2-2-2-2-2-2-2-2---------------------------------------…
  • # intro #A    !palm-muted!        Last time some parts non-muted        >
    E----------------------------------------------------------------------->
    B----------------------------------------------------------------------->
    G-----------------7-8-9-9---------------7-8-9-9---------------7-8-9-9--->
    D---7-7-7--7-7--7-7-8-9-9-7-7-7--7-7--7-7-8-9-9-7-7-7--7-7--7-7-8-9-9--->
    A---7-7-7--7-7--7-5-6-7-7-7-7-7--7-7--7-5-6-7-7-7-7-7--7-7--7-5-6-7-7--->
    E---5-5-5--5-5--5---------5-5-5--5-5--5---------5-5-5--5-5--5----------->
    #…
  • Intro:
    palm mute throughout
    
    -----------------------------------------------------------------
    -----------------------------------------------------------------
    -----4--4--4--4--4--4--4--4--2--2--2--2--2--2--2--2--------------
    -----5--5--5--5--5--5--5--5--5--5--5--5--5--5--5--5--------------
    -----------------------------------------------------------------
    -----------------------------------------------------------------
    
    -----------------------------------------------------------------
    -----------------------------------------------------------------
    -----0--0--0--0--0--0--0--0--2--2--2--2--0--0--0--0--------------
    -----5--5--5--5--5--5--5--5--5--5--5--5--5--5--5--5--------------
    -----------------------------------------------------------------
    -----------------------------------------------------------------
    
    -----------------------------------------------------------------
    -----------------------------------------------------------------
    -----5--5--5--5--5--5--5--5--4--4--4--4--4--4--4--4--------------
    -----7--7--7--7--7--7--7--7--7--7--7--7--7--7--7--7--------------
    -----------------------------------------------------------------
    -----------------------------------------------------------------
    
    -----------------------------------------------------------------
    -----------------------------------------------------------------
    -----2--2--2--2--2--2--2--2--0--0--0--0--2--2--2--2--------------
    -----7--7--7--7--7--7--7--7--7--7--7--7--7--7--7--7--------------
    -----------------------------------------------------------------
    -----------------------------------------------------------------
    
    -----------------------------------------------------------------
    -----------------------8-----------------------8-----------------
    --------------7-----------7-----------7--7--------7--------------
    -----5--5--5-----5--5--------5--5--5--------5--------------------
    -----------------------------------------------------------------
    -----------------------------------------------------------------
    
    -----------------------------------------------------------------
    -----------------------8-----------------------8-----------------
    --------------7-----------7-----------7--7--------7--------------
    -----5--5--5-----5--5--------5--5--5--------5--------------------
    -----------------------------------------------------------------
    -----------------------------------------------------------------
    
    -----------------------------------------------------------------
    -----------------------8-----------------------8-----------------
    --------------7-----------7-----------7--7--------7--7-----------
    -----7--7--7-----7--7--------7--7--7--------7--------7-----------
    -----------------------------------------------------5-----------
    -----------------------------------------------------------------
    
    
    verse:
    
    A…
  • Intro:
    cool feedback and then
    
    b--------------------------
    g--555555555555------------
    d--555555555555------------
    a--333333333333------------
    e--------------------------
    
    guitar 1
    b------------------------------------------------
    g-----------1515----1010-----------------------
    d------1010-1515-88-1010--------------------------
    a------1010-1313-88--8-8--------------------
    e-------8-8------66-------------------------------
    guitar2
    b-----------------------------------------------
    g---------10108--------10108--1515--1010--------
    d--1010~--1010810~-----10108101515881010--------
    a--1010~---8-8610~------8-8610131388-8-8--------
    e---8-8~--------8~-----------8----66------------
    
    indiscriminate.....
    b------------------------------------------------------------------
    g-55555510101010--------888888888855555555-------4444444488888888--
    d-555555101010106666666688888888885555555566666664444444488888888--
    a-333333-8-8-8-86666666666666666663333333366666662222222266666666--
    e---------------44444444------------------4444444------------------
    
    youґll…
  • This is just the intro and verse but I decided to post it anyway
    
    e-|-------------------------------------------------
    B-|-------------------------------------------------
    G-|-------------------------------------------------
    D-|-------------------------------------------------
    A-|-4-4-7-4-4-6-4-4-7-4-6-4-4-4-7-4-4-6-4-4-7-4-6-4-
    E-|-------------------------------------------------
    
    e-|-------------------------------------------
    B-|-------------------------------------------
    G-|-6----6-8-9--6-----6-8-9-6-8-9-6-8-9-6-8-9-
    D-|-6----6-8-9--6-----6-8-9-6-8-9-6-8-9-6-8-9-
    A-|-4----4-6-7--4-----4-6-7-4-6-7-4-5-7-4-6-7-
    E-|-------------------------------------------
    
    
    e-|---------------------------------------------------------
    B-|---------------------------------------------------------
    G-|-2-2-2-2-2-2-2-2-4-4-4-4-4-4-4-4-6-8-9-6-8-9-6-8-9-6-8-9-
    D-|-2-2-2-2-2-2-2-2-4-4-4-4-4-4-4-4-6-8-9-6-8-9-6-8-9-6-8-9-
    A-|-0-0-0-0-0-0-0-0-2-2-2-2-2-2-2-2-4-6-7-4-6-7-4-6-7-4-6-7-
    E-|---------------------------------------------------------…
  • A C A C A C G
     
    A                  C              A          C
    There's something wrong with the kids in my neighborhood
    A             C        G
    They always listen to Mom
    A           C     A        C
    They disregard civil…
  • Intro - repeat the first part several times
    
    G|-----------------------------------------------------------
    D|-----------------------------------------------------------
    A|-----------------------------------------------------------
    E|-0-x-x-x-0-x-x-x-0-2-3-x-x-x-3-x-x-x-x-x-x-
    
    
    verse…
  • Tuning: EADGBE
    
    Intro
    
    e|-------7-------4-------0---------------------2-----------------------------|
    B|-------7-------4-------0------------------2--------------------------------|
    G|-------8-------5-------1---------------3-----------------------------------|
    D|-------9-------6-------2------------4--------------------------------------|
    A|-------9-------6-------2---------4-----------------------------------------|
    E|-------7-------4-------0------2--------------------------------------------|
    
    Verse
    
    e|---------------------------------------------------------------------------|
    B|---------------------------------------------------------------------------|
    G|----4-4-4-4-4--------------------------------------------------------------|
    D|----4-4-4-4-4---6-6-6-6-6---2-2-2-2-2---4-4-4-4-4--------------------------|
    A|----2-2-2-2-2---6-6-6-6-6---2-2-2-2-2---4-4-4-4-4--------------------------|
    E|----------------4-4-4-4-4---0-0-0-0-0---2-2-2-2-2--------------------------|
    
    End
    
    e|--------------------7------------------------------------------------------|
    B|-----------------7---------------------------------------------------------|
    G|--------------8------------------------------------------------------------|
    D|-----------9---------------------------------------------------------------|
    A|--------9------------------------------------------------------------------|
    E|-----7---------------------------------------------------------------------|…
  • Am                    D
    These two shots are for Derrick
         G            Em
    For rifle not the handgun
           Am           Cm
    For coffee and cigarettes
        G    G7
    Give it back
              Am             D
    You know suicide…
  • INTRO
    e|--------------------------------------------------------------------|
    B|--------------------------------------------------------------------|
    G|---3-------3--------------------------------------------------------|
    D|-2-3-5---2-3-5------------------------------------------------------|
    A|-2-1-5---2-1-5------------------------------------------------------|
    E|-0---3---0---3------------------------------------------------------|…
  • # intro #B  !A is quiet!
    E-----------------------------------------------|
    B-----------------------------------------------|
    G---------------------5-5-5-5-5-3-3-3-3-3-3-3---|
    D---2-2-2-5-5-5-3-3-3-5-5-5-5-5-3-3-3-3-3-3-3---|
    A---2-2-2-5-5-5-3-3-3-3-3-3-3-3-1-1-1-1-1-1-1---|
    E---0-0-0-3-3-3-1-1-1-3-3-3-3-3-----------------|
    :
    #…
  • # intro #A ! not same scale with B ! 
    E-|----2X-----|-----------------------------------------------|----4X---|-| 
    B-|-----------|-----------------------------------------------|---------|-| 
    G-|10101010---|-9-9-9-9-----8-8-8-8-----7-7-7-7-----6-6-6-6---|---------|-|…
  • 1/2 step down
    
    Intro : 2x
       C#              B       D
    e-------------------------------------------------------------------|
    b-------------------------------------------------------------------|
    g-------------------------------------------------------------------|
    d--11~--11-1111----9--9-9--12-12--12-12--13-13-13---11--11--11------|
    a--11~--11-1111----9--9-9--12-12--12-12--13-13-13---11--11--11--x--|
    e--9-~--9--9-9-----7--7-7--10-10--10-10-/11-11-11---9---9---9----x-|…
  • G|--22-00----------------------1-------------------020------------------------------------------|
    D|---------22-00-------00-22------2-----333-2-0-2-------0-2-3-2-0----0-2---0-2-3-2-0------------|
    A|----------------33-----------------3-----------------------------3------------------3-2-------|
    E|----------------------------------------------------------------------------------------------|
    
    G|--22-00-------------------1--------------------020--------------------------------------------|
    D|---------22-00----00-22------2-320--333-2-0-2-------0-2-3-2-0-----0-2---0-2-3-2-0-------------|
    A|---------------33---------------------------------------------3--------------------3-2--------|
    E|----------------------------------------------------------------------------------------------|…
  • # verse # X2 *=play 3X #=play 4X palm-muted  
    G----*---*--7---9----*--7---5----*---*---*--7---9----*---*---#---#--> 
    D---2---5---7---9---5---7---5---5---2---5---7---9---5---7---2---2---> 
    A---2---5---5---7---5---5---3---5---2---5---5---7---5---7---2---2--->…
  • Intro
    e|---------------------------------------------------------------------------|
    B|---------------------------------------------------------------------------|
    G|---12----15--------15/12-12---12----15--------15/12-12---------------------|
    D|-5-12--8-15--8/5-5-15/12-12-5-12--8-15--8/5-5-15/12-12---------------------|
    A|-5-10--8-13--8/5-5-13/10-10-5-10--8-13--8/5-5-13/10-10---------------------|
    E|-3-----6-----6/3-3----------3-----6-----6/3-3------------------------------|
    Verse
    e|---------------------------------------------------------------------------|
    B|---------------------------------------------------------------------------|
    G|---------8-8-8-8-----------------------------------------------------------|
    D|-5-5-5-5-8-8-8-8-8-8-8-8-5-5-5-5-5-5-3-3-3-3-3-3---------------------------|
    A|-5-5-5-5-6-6-6-6-8-8-8-8-5-5-5-5-5-5-3-3-3-3-3-3---------------------------|
    E|-3-3-3-3---------6-6-6-6-3-3-3-3-3-3-1-1-1-1-1-1---------------------------|
    Pre…
  • Intro:
    
    Guitar 1, Guitar 2 is quiet
    
    e|--7-7-x-7-7-x-7-7-x-7-7-x-7-7-x-7-7-x-7-7-x-7-7---|
    B|--8-8-x-8-8-x-8-8-x-8-8-x-8-8-x-8-8-x-8-8-x-8-8---|
    G|--9-9-x-9-9-x-9-9-x-9-9-x-9-9-x-9-9-x-9-9-x-9-9---|
    D|--9-9-x-9-9-x-9-9-x-9-9-x-9-9-x-9-9-x-9-9-x-9-9---|
    A|--7-7-x-7-7-x-7-7-x-7-7-x-7-7-x-7-7-x-7-7-x-7-7---|
    E|--------------------------------------------------|
    
    Verse…
  • Tuning: Standart E
    
    Intro - 2x
    e|---------------------------------------------------------------------------|
    B|---------------------------------------------------------------------------|
    G|---9--9-9-9-9-9-9-9--9--9-9-9-9-9-9-9-9--9---------------------------------|
    D|---9--9-9-9-9-9-9-9--9--9-9-9-9-9-9-9-9--9---------------------------------|
    A|---7--7*7*7*7*7*7*7*-7--7*7*7*7*7*7*7*7*-7---------------------------------|
    E|---------------------------------------------------------------------------|
    
    Bridge…
  • verse 1 
    G:--------------------------------------------------------------- 
    D:---------x-x-x-x-------2-0-0-0-0-0------------------------------------------
    A:-3-3-3------------3-3-----------------0-0-0-0-0-0-0-0-0-0-0-0-0-0-0-0
    E:---------------------------------------------------------------…
  • # intro #A   *=play 24X                                                  >
    E------------------------------------------------------------------------>
    B------------------------------------------------------------------------>
    G--------------------------------------------------------------------7-->
    D----------------------------------10101010-7------10101010-7---5-7--7-->
    A----------------------------------10101010-7------10101010-7---5-7--5-->
    E-----------------------------------8-8-8-8-5-------8-8-8-8-5---3-5------>
    #…
  • # intro #A&B
    E---2-------7-------5-------5-------2-------7--7---|
    B---2-------7-------7-------6-------2-------7--7---|
    G---2-------8-------7-------7-------2-------8--8---|
    D---4-------9-------7-------7-------4-------9--9---|
    A---4-------9-------5-------5-------4-------9--9---|
    E---2-------7-----------------------2-------7--7---|
    :
    #…
  • # verse # X4   *=play 8X      # chorus # *=play 6X palm-muted
    E-----------------------|     E-------------------------------------------|
    B--------------------*--|     B------*---------*---------*----------------|
    G-----------------4-5---|…
  • # intro #A  !pick-slide!                                                   >
    E-----------3-----------------------3--5-------3--------------------------->
    B-----------3-------7---------------3--5-------3-------7------------------->
    G-----------4-------7---------------4--6-------4-------7------10------12--->
    D---7-------5-------7-------3----2--5--7-------5-------7------10------12--->
    A---7-------5-------5-------3----3--5--7-------5-------5-------8----7-10--->
    E---5-----------------------1----------5----------------------------8------>
    #…
  • Bad ass song
    
    e--3-3--3-3--5-5--1-1-------
    B--5-5--3-3--5-5--1-1-------
    D--5-5--4-4--5-5--2-2-------
    G-------5-5-------3-3-------
    A---------------------------
    E---------------------------
    This of course is played with ska…
  • G:---------------------------------------------------------------
    D:---------------------------------------------------------------
    A:--7-4-5-11-12-------------------------------------------------
    E:-5-------------5-5-3-5-5-3-5-5-3-5-5-1-1-0-1-1-0-3-3-1-3-3-5-
    
    
    G:-----------------------------------------------------------------------
    D:-----------------------------------------------------------------------
    A:-3-3-3-3-3-3-3-3-------------------5-5-5-5-5-5-5-5------------------
    E:-------------------3-3-3-3-3-3-3-3------------------1-1-1-1-1-1-1-1-
    
    
    
    G:--------------------------------------------------------------------
    D:-------------------------------------------------------------------
    A:-3-3-3-3-3-3-3-3-5-5-5-5-5-5-5------------------------------------
    E:----------------------------------1-1-1-1-1-1-1-1-3-3-3-3-3-3-3-3-
    
    
    
    G:--------------------------------------------------------------
    D:--------------------------------------------------------------
    A:--------------------------------------------------------------
    E:10-12-10-12-10-10-13-10-12-10-12-10-10-12-10-12-10-12-10
    
    
    
    G:--------------------------------------------------------------------
    D:--------------------------------------------------------------------
    A:--7-3--5-5--3-3-5-5-5-5-5-5-5-5-----------------------------------
    E:-5----3----1----------------------1-1-1-1-1-1-1-1-3-3-3-3-3-3-3-3
    
    
    
    G:-9----------------------9-11-12-…
  • Tuning: EADGBE
    
    Intro
    
    e|---------------------------------------------------------------------------|
    B|---------------------------------------------------------------------------|
    G|--------------------7-------------------------7----------------------------|
    D|---2--2---5--5--5---7--------2--2---5--5--5---7----------------------------|
    A|---2--2---5--5--5---5--------2--2---5--5--5---5----------------------------|
    E|---0--0---3--3--3------------0--0---3--3--3--------------------------------|
    
    Verse
    
    e|---------------------------------------------------------------------------|
    B|---------------------------------------------------------------------------|
    G|---------------------------7-7-7-7-7---9-9-9-9-9---------------------------|
    D|---2-2-2-2-2---5-5-5-5-5---7-7-7-7-7---9-9-9-9-9---------------------------|
    A|---2-2-2-2-2---5-5-5-5-5---5-5-5-5-5---7-7-7-7-7---------------------------|
    E|---0-0-0-0-0---3-3-3-3-3---------------------------------------------------|
    
    Chorus
    
    e|---------------------------------------------------------------------------|
    B|---------------------------------------------------------------------------|
    G|--------------------7-------------------------7----------------------------|
    D|---2--2---5--5--5---7--------2--2---5--5--5---7----------------------------|
    A|---2--2---5--5--5---5--------2--2---5--5--5---5----------------------------|
    E|---0--0---3--3--3------------0--0---3--3--3--------------------------------|…
  • INTRO PART1:
    GUITAR 1: X5
    e|--------------------------------------------------------------------------|
    B|--------------------------------------------------------------------------|
    G|9-9-9-7-7-7-5-5-5--9-9-9-7-7-7-9-9-9--7-7-7-5-5-5-4-4-4--5-5-5-4-4-4------|
    D|X-X-X-X-X-X-X-X-X--X-X-X-X-X-X-X-X-X--X-X-X-X-X-X-X-X-X--X-X-X-X-X-X-7-7-7|
    A|7-7-7-5-5-5-3-3-3--7-7-7-5-5-5-7-7-7--5-5-5-3-3-3-2-2-2--3-3-3-2-2-2-X-X-X|
    E|---------------------------------------------------------------------5-5-5|
    
    GUITAR…
  • bass intro and then:
    
    b--------------------------------------------
    g--555565-------------------------------------
    d--------86666666644444455555668--------------  x2
    a--------------------------------------------
    e--------------------------------------------…
  • Play 4 times
    e|----------------------------------------------------------------------------|
    B|----------------------------------------------------------------------------|
    G|-------7--12--12--12--9-----------------------------------------------------|
    D|-2--5--7--12--12--12--9-----------------------------------------------------|
    A|-2--5--5--10--10--10--7-----------------------------------------------------|
    E|-0--3-----------------------------------------------------------------------|…
  • Standard Tuning: E A D G
    
    Riff 1:
    G|----7----9--7---9---7---7---9---6---6----6--|
    D|--77--77--77--77--77--77--77--77--77--77----|
    A|--------------------------------------------|
    E|--------------------------------------------|
    
    Riff…
  • PART 1
    e|--------------------------------------------------------------------|
    B|--------------------------------------------------------------------|
    G|----------7-7-7-7--9-9-9-9-7-9-9-9-9-7-9-9-9-9-7--------------------|
    D|-2-2-2-2--7-7-7-7--9-9-9-9-7-9-9-9-9-7-9-9-9-9-7--5-5-5-5--4-4-4-4--|
    A|-2-2-2-2--5-5-5-5--7-7-7-7-5-7-7-7-7-5-7-7-7-7-5--5-5-5-5--4-4-4-4--|
    E|-0-0-0-0------------------------------------------3-3-3-3--2-2-2-2--|
    
    PART…
  • Intro: 
    G:---------------------------------------------------------------
    D:---------------------------------------------------------------
    A:----5-5-7-7-7---5-5-7-7-7---5-5-7-7-7--------------------------
    E:-5-5---------5-5---------5-5-----------------------------------…
  • Part 1
    G:---------------------------------------------------------------
    D:---------------------------------------------------------------
    A:-2-2-2-2--2-2-2--2-2-2-4-4-2-2-2--2-2-2--2-2-2-4-4-0-0
    E:---------------------------------------------------------------
    
    G:---------------------------------------------------------------
    D:---------------------------------------------------------------
    A:--0-0-0--0-0-0-4-4-0-0--0-0-0--0-0-0--4-4-2-2-2
    E:---------------------------------------------------------------
    
    G:---------------------------------------------------------------
    D:---------------------------------------------------------------
    A:--2-2-2--2-2-2-4-4-2-2-2--2-2-2--2-2-2-4-4-0-0-0
    E:---------------------------------------------------------------
    
    G:---------------------------------------------------------------
    D:---------------------------------------------------------------
    A:-0-0-0--0-0-0-4-4-0-0-0--0-0-0--0-0-0--4-4-------
    E:---------------------------------------------------------------…
  • Intro- clean
    e:---------------------------------------------------------------|
    B:---------------------------------------------------------------|
    G:--------5------------------------------------------------------|
    D:------5---5---------5----------7---------5---------------------|
    A:----3-------------5---5------7---7-----5---5-------------------|
    E:----------------3----------5---------3-------------------------|
    
    e:---------------------------------------------------------------|
    B:---------------------------------------------------------------|
    G:-------5------------------------------5------------------------|
    D:-----5---5---------5----------3-------5------------------------|…
  • Riff 1 (x4)
    |G---5-5-5-4-2-------------------------------2-4-------------------|
    |D--------------5-5-5-3-2--5-5-5-3-2--6-6-6------------------------|
    |A-------------3-3-3-3---------------------------------------------|
    |E--5-5-5-5---------------3-3-3-3----4-4-4-4-----------------------|
    
    Riff…
  • # intro #A&B
    E-------|
    B-------|
    G-------|
    D---2---|
    A---2---|
    E---0---|
    :
    # intro2 #A&B  ()=GuitarA plays 3X, guitarB 2X
    E---(-----------------------)----------------------|
    B---(-----------------------)----------------------|
    G---(------------5-5-5-7-7-7)------------5-5-5-7---|
    D---(2-2-2-5-5-5-5-5-5-7-7-7)2-2-2-5-5-5-5-5-5-7---|
    A---(2-2-2-5-5-5-3-3-3-5-5-5)2-2-2-5-5-5-3-3-3-5---|
    E---(0-0-0-3-3-3------------)0-0-0-3-3-3-----------|
    :
    #…
  • G-|-----------------------------------------------------------------
    D-|-----------------------------------------------------------------
    A-|-5-5-5-5-5-5-5-5------------------------------------------------------
    E-|-----------------------6-6-6-6-6-6-6-6-7-7-7-7-7-7-7-7-6-6-6-6-6-6-6-6-
    
    G-|-----------------------------------------------------------------
    D-|------------------------------------------------------------------
    A-|-5-5-5-5-5-5-5-5---------------------------------------------------
    E-|----------------------6-6-6-6-6-6-6-6-7-7-7-7-7-7-7-7-6-6-6-6-6-6-6-6-
    
    G-|-----------------------------------------------------------------
    D-|-----------------------------------------------------------------
    A-|-5-5-5-5-5-5-5-5-------------------------------------------------
    E-|-----------------6-6-6-6-6-6-6-6-7-7-7-7-7-7-7-7-6-6-6-6-6-6-6-6-
    
    G-|-----------------------------------------------------------------
    D-|-----------------------------------------------------------------
    A-|-5-5-5-5-5-5-5-5-------------------------------------------------
    E-|----------------------6-6-6-6-6-6-6-6-7-7-7-7-7-7-7-7-6-6-6-6-6-6-6-6-
    
    G-|-------------------------------------------------------------------------
    D-|------------------------------------------------------------------------------
    A-|-5-5-5-5------------------------------------------------5-5-5-5-----------------
    E-|----------------6-6-6-6-----7-7-7-7-----6-6-6-6-------------------6-6-6-6-----
    
    G-|-------------------------------------------------------------------------
    D-|----------------------------------------------------------------------------
    A-|-------------------------------5-5-5-5-----------------------------------------
    E-|-7-7-7-7-----6-6-6-6--------------------6-6-6-6-----7-7-7-7-----6-6-6-6-----
    
    G-|-------------------------------------------------
    D-|----------------------------------------------------
    A-|-5-5-5-5-----------------------------------------
    E-|----------------6-6-6-6-----7-7-7-7-----6-6-6-6-----
    
    G-|-----------------------------------------------------------------
    D-|-----------------------------------------------------------------
    A-|-5-5-5-5-5-5-5-5-------------------------------------------------
    E-|-----------------------6-6-6-6-6-6-6-6-7-7-7-7-7-7-7-7-6-6-6-6-6-6-6-6-
    
    G-|-----------------------------------------------------------------
    D-|-----------------------------------------------------------------
    A-|-5-5-5-5-5-5-5-5---------------------------------------------------
    E-|-----------------------6-6-6-6-6-6-6-6-7-7-7-7-7-7-7-7-6-6-6-6-6-6-6-6-
    
    G-|----------------------------------------------------------------
    D-|--------------------------------------------------------------------------
    A-|-5-5---------------------------------------5-5------------------------------
    E-|--------6-6-4-6-6--8--8-6-6-4-6-6----------6-6-4-6-6--8--8-6-6-4-6-6-
    
    G-|-------------------------------------------------------------------------
    D-|------------------------------------------------------------------------------
    A-|-5-5-5-5-5-5-5-5-----------------------8--8--8--8--8--8--8--8-------5-5-5-5-5-5-5-5-
    E-|-----------------------6-6-6-6-6-6-6-6-----------------------------------------
    
    G-|-------------------------------------------------------------------------
    D-|--------------------------------------------------------------------------------
    A-|-5-5-5-5-5-5-5-5-----------------------8--8--8--8--8--8--8--8-------5-5-5-5-5-5-5-5-
    E-|-----------------------6-6-6-6-6-6-6-6-----------------------------------------
    
    G-|----------------------------------------------------------------
    D-|---------------------------------------------------------------
    A-|-5-5--8--10--8--5-5---8-10--8--5-5--8-10--8--5-5-------
    E-|--------------------------------------------------
    
    G-|-------------------------------------------------------------------------
    D-|--------------------------------------------------------------------------------
    A-|-5-5-5-5-5-5-5-5---------------------8--8--8--8--8--8--8--8-5-5-5-5-5-5-5-5-
    E-|----------------------6-6-6-6-6-6-6-6-----------------------------------------
    
    G-|-------------------------------------------------------------------------
    D-|---------------------------------------------------------------------------
    A-|-5-5-5-5-5-5-5-5------------------8--8--8--8--8--8--8--8-5-5-5-5-5-5-5-5-
    E-|-----------------6-6-6-6-6-6-6-6-----------------------------------------
    
    G-|--------------------------------------------------------
    D-|--------------------------------------------------
    A-|-5-5--8-10--8-5-5--8-10--8-5-5--8-10--8-5-5-------
    E-|--------------------------------------------------
    
    G-|-------------------------------------------------------------------------
    D-|------------------------------------------------------------------------------
    A-|-5-5-------7-7-------------8-7-5-3-0-3-5---------------5-5-5----------5-5-5---------
    E-|--------------------------------------------------5-5-5-5----------5-5-5-5---------5-5-5-5-
    
    G-|------------------------------------------
    D-|-------------------------------------------
    A-|-5-5-5-5--8-7-5-3-0-3-5--8-10-12-10--8-5--
    E-|------------------------------------------
    
    G-|----------------------------------------------------------------
    D-|------------------------------------------------------------------------------
    A-|-5-5----------------------------------------5-5----------------------------
    E-|-------6-6-4-6-6--8--8---6-6-4-6-6---------6-6-4-6-6--8--8-6-6-4-6-6-
    
    G-|-------------------------------------------------------------------------
    D-|-----------------------------------------------------------------------------
    A-|-5-5-5-5-5-5-5-5------------------8--8--8--8--8--8--8--8-----5-5-5-5-5-5-5-5-
    E-|-----------------------6-6-6-6-6-6-6-6-----------------------------------------
    
    G-|-------------------------------------------------------------------------
    D-|-------------------------------------------------------------------------------
    A-|-5-5-5-5-5-5-5-5-----------------------8--8--8--8--8--8--8--8-----5-5-5-5-5-5-5-5-
    E-|-----------------------6-6-6-6-6-6-6-6-----------------------------------------
    
    G-|--------------------------------------------------
    D-|-----------------------------------------------------
    A-|-5-5--8-10---8-5-5---8-10--8--5-5--8--10--8-5-5-------
    E-|--------------------------------------------------
    
    G-|-------------------------------------------------------------------------
    D-|----------------------------------------------------------------------------
    A-|-5-5-------7-7--------8-7-5-3-0-3-5-----------5-5-5------------5-5-5---------
    E-|-------------------------------------------5-5-5-5---------5-5-5-5---------5-5-5-5-
    
    G-|------------------------------------------
    D-|------------------------------------------
    A-|-5-5-5-5--8-7-5-3-0-3-5-8-5-5-5-----------
    E-|------------------------------------------…
  • Intro 1st G. pt.1   pt.2	     2nd G.
    e|-----------------|---------------|-----------------------------------------|
    B|-----------------|---------------|-----------------------------------------|
    G|-7---5-7----5----|-7-8-7-6-5-----|-16-15-15-14-12--------------------------|
    D|-5(6)5-5(2)-5(3)-|-x-x-x-x-5(12)-|--x--x--x--x--x(6)-----------------------|
    A|-----------------|-5-6-5-4-3-----|-14-13-13-12-10--------------------------|
    E|-----------------|---------------|-----------------------------------------|…
  • Intro
    B---00--00--00--00--11--11--11--11-|
    G---00--00--00--00--00--00--00--00-|}x2
    D-22--22--22--22--22--22--22--22---|
    
    Verse
    B---00    ---00    ---00    ---00    ---11
    G---00    ---00    ---00    ---00    ---00
    D-22--}x4…
  • Tuning: EADGBE
    
    Verse
    
    e|---------------------------------------------------------------------------|
    B|---------------------------------------------------------------------------|
    G|----9-9-9----14-14----12----11-11-11-11-11---------------------------------|
    D|----9-9-9----14-14----12----11-11-11-11-11---------------------------------|
    A|----7-7-7----12-12----10----9--9--9--9--9----------------------------------|
    E|---------------------------------------------------------------------------|
    
    Chorus…
  • # intro #A&B
    E---------3--3-------3--3-------3--3---------------|
    B---------3--3-------3--3-------3--3-7-7-7-7-7-7---|
    G---------4--4-------4--4-------4--4-7-7-7-7-7-7---|
    D---7-7-7-5--5-7-7-7-5--5-7-7-7-5--5-7-7-7-7-7-7---|
    A---7-7-7-5--5-7-7-7-5--5-7-7-7-5--5-5-5-5-5-5-5---|
    E---5-5-5------5-5-5------5-5-5--------------------|
    :
    #…
  • Intro
    e|-----------------------------------------|
    B|-----------------------------------------|
    G|----------------5555---------------------|
    D|-5555-4444-2222-5555-555555555555555-----|
    A|-5555-4444-2222-3333-555555555555555-----|
    E|-3333-2222-0000------333333333333333-----|
    
    Verse
    e|-----------------------------------------|
    B|-----------------------------------------|
    G|------5555----------------5555------7777-|
    D|-5555-5555-5555-7777-2222-5555-5555-7777-|…
  • # intro #A X8
    E---3--3-3-3-3--5--5-5-5-5---|
    B---5--5-5-5-5--7--7-7-7-7---|
    G---5--5-5-5-5--7--7-7-7-7---|
    D---5--5-5-5-5--7--7-7-7-7---|
    A---3--3-3-3-3--5--5-5-5-5---|
    E----------------------------|
    # intro #B X8
    E------8-----8----10----10---|
    B------5-----5-----7-----7---|
    G----------------------------|
    D----------------------------|
    A----------------------------|
    E----------------------------|
    :
    #…
  • >
    E----------------------------------------------------0-0-1-1------------>
    B------------------------------------1-1-0-0-3-3-1-1-0-0-1-1------1----->
    G------------------------------------0-0-0-0-2-2-0-0---------0-0--0----->
    D-------------------------------------2-2-0-0-3-3-2-2-----0-00-0-------->
    A-----------------------------------------------------3-3-----2-2-3----->
    E----------------------------------------------------------------------->
    BB…
  • Verse
    G-|----------------------------------------------------------|
    D-|---------------------------------------------------------------
    A-|-7-7-7-7-10-7-7-7--7-7-7-7-10-7-7-7--7-7-7-7-10-7-7-7-5-3-|
    E-|----------------------------------------------------------|
    
    professional…
  • # intro #A&B  X2    m=palm-muted
    E----------------------------------------------------|
    B----------------------------------------------------|
    G------m-m-m------m-m-m-m----m-m-m-------5-------4---|
    D---7--7-7-7-7--7-7-7-7-7-3--3-3-3-3---5-------4-----|
    A---7--7-7-7-7--7-7-7-7-7-3--3-3-3-3-3-------2-------|
    E---5--5-5-5-5--5-5-5-5-5-1--1-1-1-1-----------------|
    :
    #…
  • # intro #A
    E--------------------------------------------------|
    B--------------------------------------------------|
    G---------------------------pool---9-9-9---9-9-9---|
    D---------------------------strike-9-9-9---9-9-9---|
    A----------------------------------7-7-7---7-7-7---|
    E--------------------------------------------------|
    #…
  • e--5---5-5------4---4-4------2---2-2------5---5-5
     B--5---5-5------5---5-5------2---2-2------7---7-7
     G--6---6-6------6---6-6------3---3-3------7---7-7
     D--7---7-7------6---6-6------4---4-4------7---7-7
     A--7---7-7------4---4-4------4---4-4------5---5-5…
  • # intro #A                  *=play 16X with lefthand-muting
    E---------------------------------------------------------------------|
    B----------------------------*----------------------------------------|
    G---------------------------9-----------------------------------------|
    D---6---7---6-7-----6-------9---------------6---7---6-7---7-6-7---5---|
    A---------------7-------7---7---------------------------7-------7-----|
    E---------------------------------------------------------------------|
    #…
  • Intro
    E--------------------------------------------------------|
    B--------------------------------------X-----------------|
    G--------------------------------------X10101514151514---|
    D--------------------------------------X-----------------|
    A--------------------------------------X-8-81312131312---|
    E--------------------------------------------------------|
    intro
    E--------------------------------------------------------|
    B--------------------------------------------------------|
    G--10101015151515141514---------------101010151515-------|
    D--10101015151515141514---------------101010151515-------|
    A---8-8-813131313121312----------------8-8-8131313-------|
    E--------------------------------------------------------|
    
    E------------------------------------|
    B------------------------------------|
    G--10101015151515141514-1010101515---|
    D--10101015151515141514-1010101515---|
    A---8-8-813131313121312--8-8-81313---|
    E------------------------------------|
    verse…
  • # intro #           # intro2 # X4          # intro3 #
    E---------------|   E------------------|   E-----------------------------------|
    B---------------|   B------------------|   B-----------------------------------|
    G---------7-9---|…
  • # intro #
    E---0---2---3-5-3-2---0-2-3-2-2-3-----0---2---3-5-3-2---0-2-3-33320---|
    B---------------------------------------------------------------------|
    G---------------------------------------------------------------------|
    D---------------------------------------------------------------------|
    A---------------------------------------------------------------------|
    E---------------------------------------------------------------------|
    :
    #…
  • The opening bassline is BF#(A string)C#E(A string)
      E A D G B E     E A D  G  B E       E  A D  G B E    E A D G B E
    B 7 9 9 X X X  F#II X 9 11 11 X X  C# 9 11 11 X X X  E X 9 7 7 X X
       E A D G B E     E A D G B E
    G# 4…
  • BASS TAB
    
    
    1.
    ---------------------------------------------------
    ---------------------------------------------------
    ---------------------------------------------------
    -0-0-0-0--5-5-5--7-7-7-7-7-7-7-7-------------------
    
    2.
    ---------------------------------------------------
    ---------------------------------------------------
    ---------------------------------------------------
    -0-0-0-0--5-5-5--3-3-3-3-3-3-3-3-------------------
    
    3.
    ---------------------------------------------------
    ---------------------------------------------------
    ---------------------------------------------------
    -0-0-0-0--5-5-5-5--0-0-0--3-3-3-3--5-5-5-5-5-5-5-5-
    
    4.
    ---------------------------------------------------
    ---------------------------------------------------
    ---------------------------------------------------
    -0-0-0-0--5-5-5-5--0-0-0--3-3-3-3--0-0-0-0-0-0-0-0-
    
    5.
    ---------------------------------------------------
    ---------------------------------------------------
    ---------------------------------------------------
    -0-0-0-0-0-0-0-0-------7---------0---------7-------
    
    
    1…
  • Intro: Rythum
    ( _____ ) = Palm Muting         ( ***** ) = Ska Upbeat
    e|---------------------------------------------------------------|
    B|---------------------------------------------------------------|
    G|--------------------------------------------4-4-4-4------------|
    D|-5-----------------------------5------------5-5-5-5------------|
    A|-3-----5-----3-----5--5-5-5----3---5-----3--5-5-5-5------------|
    E|-------3-----1-----3--3-3-3--------3-----1--3-3-3-3------------|
    
    Intro:…
  • # intro #B X4 !GuitarA is quiet!
    E-----------------------------|
    B-----------------------------|
    G-----------------------------|
    D-----------------------------|
    A-----------------------------|
    E---5--3--5--3--3-3-2--3--2---|
    :
    #…
  • Intro
    E-------------------|                  
    B-------------------| 
    G---7---------------|
    D---7---9---9-------|                  
    A---5---7---9-------|                  
    E---5---7---7-------|                   
    Verse
    E----------------------------------------------------------------------------|
    B----------------------------------------------------------------------------|
    G---7---------------7---------------7---------------7------------------------|
    D---7---9---9-------7---7---5-------7---9---9-------7-------7-------5-------5|
    A---5---7---9-------5---7---5-------5---7---9-------5-------7-------5-------5|
    E---5---7---7-------5---5---3-------5---7---7-------5-------5-------3-------3|
    
    E-----------------------------------|
    B-----------------------------------|
    G------------------11---9---8-------|
    D-----------------------------------|…
  • e-------------------------------------------
    B-------------------------------------------
    G-5------7-5---5-7---10--10-5---5-7---7-10--
    D-5------7-5---5-7---10--10-5---5-7---7-10--
    A-3------5-3---3-5----8---8-3---3-5---5--8--
    E-------------------------------------------
    Bass…
  • intro
    e-------------------------------------------------
    b-------------------------------------------------
    g--------7-7--9-9---------------------------------
    d---7-7--7-7--9-9--5-5----------------------------  X2
    a---7-7--5-5--7-7--5-5----------------------------
    e---5-5------------3-3----------------------------
    verse
    e-------------------------------------------------
    b-------------------------------------------------
    g-------------------------------------------------
    d-------------------------------------------------…
  • g|-------------------------------------------|
    d|-------------------------------------------|
    a|-111111(p)0(h)3(p)0(h)555555(h)6(p)5(p)0(h)|
    e|-------------------------------------------|
    
    g|-----------------------------|
    d|-----------------------------|
    a|-111111(p)0(h)3(p)0(h)555555-|
    e|-----------------------------|…
Наверх