Аккорды «Not By Choice»

Популярные аккорды Not By Choice:
алфавиту | просмотрам | случайно
  • Intro
    G|-------------------------------------------------------------------|
    D|-------------------------------------------------------------------|
    A|--6-6-6-6-6-6-6-6--------------------------------------------------|
    E|------------------6-6-6-6-6-6-6-6-8-8-8-8-8-8-8-8-4-4-4-4-6-6-6-6--|
    
    Chorus
    G|-------------------------------------------------------------------|
    D|-------------------------------------------------------------------|
    A|--6-6-6-6-6-6-6-6--------------------------------------------------|
    E|------------------6-6-6-6-6-6-6-6-8-8-8-8-8-8-8-8-4-4-4-4-6-6-6-6--|
    
    Verse
    G|-----------------------------------|
    D|-----------------------------------|
    A|--6-6-6-6--------------------------|
    E|----------6-6-6-6-8-8-8-8-4-4-4-4--|
    
    Bridge
    G|-------------------------------------------------------------------|
    D|-------------------------------------------------------------------|
    A|------------------6-6-6-6-6-6-6-6----------------------------------|
    E|--4-4-4-4-4-4-4-4-----------------8-8-8-8-8-8-8-8-6-6-6-6-6-6-6-6--|
    
    Just…
  • G                      c
              Attention is what I'm, Is what I'm needing from you.
              
              E                          C   D
              Even though you're miles away.
              
              G…
  • Standard tuning
    x=mute 
    h=hammer on
    Intro (Bass):
    e:------------------------------------------------
    B:------------------------------------------------
    G:------------------------------------------------
    D:------------------------------------------------…
  • Intro (clean)
    e|---------------------------------------------------|
    B|---------------------------------------------------|
    G|--------------------------7-7-7-7-5-5-5-5-5-5-7-7--|
    D|--5-5-5-5-4-4-4-4-2-2-2-2-7-7-7-7-5-5-5-5-5-5-7-7--|
    A|--5-5-5-5-4-4-4-4-2-2-2-2-5-5-5-5-3-3-3-3-3-3-5-5--|
    E|--3-3-3-3-2-2-2-2-0-0-0-0--------------------------|
    
    (distortion…
  • . = palm mute
    ~ = let ring
    
    Intro
    e|-------------------------------------------------|
    B|-------------------------------------------------|
    G|--4-4---------6-6-------4-4----------------------|
    D|--4-4---4-4---6-6---2~~-4-4---4-4---2~~-6-6-4-4--|
    A|--2-2---4-4---4-4---2~~-2-2---4-4---2~~-6-6-4-4--|
    E|--------2-2---------0~~-------2-2---0~~-4-4-2-2--|
    
    
    The…
  • standard tuning
    
    Intro:
    Guitar 1
    e:------------------------------------------------------------------------------------------------------------
    B:------------------------------------------------------------------------------------------------------------
    G:-11-11-11-11-11-11-11-11-11-11-11-10-11-11-11-11-11-11-13-13-16-15-11-11-11-11-11-11-13-13-16-15-16-15-13-15
    D:-x--x--x--x--x--x--x--x--x--x--x--x--x--x--x--x--x--x--x--x--x--x--x--x--x--x--x--x--x--x--x--x--x--x--x--x-
    A:-9--9--9--9--9--9--9--9--9--9--9--8--9--9--9--9--9--9--11-11-14-13-9--9--9--9--9--9--11-11-14-13-14-13-11-13
    E:------------------------------------------------------------------------------------------------------------
    
    
    e:---------------------------------------------------------------------------------------------------
    B:---------------------------------------------------------------------------------------------------…
Наверх