Аккорды «Nothingface»

Nothingface
Команда «Nothingface» была сформирована в 1995 году в Вашингтоне. В начале состав группы представляли: вокалист Matt Holt, гитарист Tom Maxwell, басист Bill Gaal и барабанщик Chris Houck. Следуя лучшим традициям старой метал-школы с определенной долей мелодичности и современным музыкальным тенденциям, команда начинала репетировать и записывать свои первые произведения. После первых двух релизов - «Pacifier», выпущенного в 1997 году, и «An Audio Guide To Everyday Atrocity», вышедшего в год спустя… Читать полностью... Команда «Nothingface» была сформирована в 1995 году в Вашингтоне. В начале состав группы представляли: вокалист Matt Holt, гитарист Tom Maxwell, басист Bill Gaal и барабанщик Chris Houck. Следуя лучшим традициям старой метал-школы с определенной долей мелодичности и современным музыкальным тенденциям, команда начинала репетировать и записывать свои первые произведения. После первых двух релизов - «Pacifier», выпущенного в 1997 году, и «An Audio Guide To Everyday Atrocity», вышедшего в год спустя на лейбле «DCide», музыканты «Nothingface» выпустили новый лонгплей «Violence» уже на мажор-лейбле «TVT Records». После записи альбома группу покинул барабанщик Chris Houck, а на его место приняли Тома Сайклза (Tom Sickles). Спустя год «Nothingface» расстались со своим прежним участником в лице Билла Гаала (Bill Gaal), который принял решение начать карьеру звукоинженера. Новым басистом коллектива стал бывший участник команды «Deadlights» Jerry Montano, после внедрения которого группа приступила к записи нового материала. Скрыть...
Популярные аккорды Nothingface:
алфавиту | просмотрам | случайно
  • Tunning:A#,F,A#,D#,G,C drop A 2 steps down
    PM-palm mute every note with - under them
    
    /-slide up 
    -slide down
    '-let note ring out 1 count
    ==This tab is perfect, it took me about an hour, 
    I worked hard to get it perfect…
  • / - Slide up
     - Slide down
    PM - Palm mute
    
    
    Tuning: C G C F A D
    
    
    Chorus
    |--------------------------------------------------------------------------|
    |--------------------------------------------------------------------------|
    |-13/15-15-15-15-15--13/15-15-15-15-16-16--13/15-15-15-15------------------|…
  • Tuning: 1/2 Step Down, Drop D
    
    INTRO:
    |-------------------------------------------------------------------|
    |-----------------------------------------4-------------------------|
    |-4-4-4-4--4-4-4--4-4-4-4--4-4-4--4-4-4-4--4--4-4-4--4-4-4-4--4-4-4-|
    |-4-4-4-4--4-4-4--4-4-4-4--4-4-4--4-4-4-4---4-4-4-4--4-4-4-4--4-4-4-|
    |-2-2-2-2--2-2-2--2-2-2-2--2-2-2--2-2-2-2-----2-2-2--2-2-2-2--2-2-2-|
    |-------------------------------------------------------------------|
    PM.…
  • low to high: b e a d g
    
    intro:
    g---------10-10-10-----10-10-10---10-10---
    d----9-9-9--------9-9-9--------9-9--------
    a-----------------------------------------
    e-----------------------------------------
    b-----------------------------------------
    
    heavy…
  • Tuning: Drop D
    
    Riff 1:
    E-----------------------------------
    B-----------------------------------
    G-----------------------------------
    D---33333---3333------33333---------
    A-2-------2---------2---------------
    D----------------0----------0-3-5-7-…
  • Tuning: C G C F A D
    
    Intro
    |-------------|       |-----------|
    |-------------|       |-----------|
    |-------------| x3    |-----------| x5
    |-32--0--4/6-|       |-1-1-1-1-1-|
    |-32--0--4/6-|       |-1-1-1-1-1-|
    |-32--0--4/6-|…
  • Tuning: Drop D
    
    Riff 1: Clean.
    E----------------------------------------------------------
    B----------------------------------------------------------
    G--------------------------7-----------------------------2-
    D---------4-------------6----6---6---------4------------0--
    A---3---3---3---3-----5--------5-----3---3---3---3-----0---
    D-3---3-------3-----5--------------3---3-------3-----------
    
    Riff…
  • Eb|------------------------------------------------------------------------------------------------|
    Bb|------------------------------------------------------------------------------------------------|
    Gb|------------------------------------------------------------------------------------------------|
    Db|------------------------------------------------------------------------------------------------|
    Ab|--2--0--2--0--2--3--2--0--2--0--2--3--2--0--2--0--2--0--2--3---0-----3-3---3-3-3----------------|
    Db|--2--0--2--0--2--3--2--0--2--0--2--3--2--0--2--0--2--0--2--3---0-----3-3---3-3-3----------------|
    p.m.-----------------------------------------------------------------------------------------------|
    
    
    Verse
    Eb|---------------------------------------------------|
    Bb|---------------------------------------------------|
    Gb|---------------------------------------------------|
    Db|---------------------------------------------------|
    Ab|--9---3---5----5------7------7-------7-------------|
    Db|--9---3---3---5-------------------5--------0-------|
    
    
    at…
  • Tuning: 1/2 Step Down, Drop D
    
    INTRO:
    |---------------------------------|
    |---------------------------------|
    |---------------------------------|
    |-0-3-5-5-5-3-3-3-6-6-6-3-3-3-3-5-|
    |-0-3-5-5-5-3-3-3-6-6-6-3-3-3-3-5-|
    |-0-3-5-5-5-3-3-3-6-6-6-3-3-3-3-5-|
    
    FILL
    |-------|
    |-------|
    |-------|
    |-0-3-0-|
    |-0-3-0-|
    |-0-3-0-|
    
    MAIN…
  • Tuning: Drop D, One Half Step Down (Db, Ab, Db, Gb, Bb, Eb)
    
    Intro/Pre-Chorus 
    |-----------------------------------------------| 
    |-----------------------------------------------| 
    |-----------------------------------------------|…
  • Tuning: 1/2 Step Down, Drop D
    
    BRIDGE:
    |------------------|
    |------------------|
    |-4-2--8-8-7-7-5-5-|
    |-X-X--X-X-X-X-X-X-|
    |-2-0--6-6-5-5-3-3-|
    |------------------|
    
    MAIN RIFF: (elevens not ones)
    |-----------------------------------|
    |-----------------------------------|
    |----------101010101010999999777777-|
    |-111111999101010101010999999777777-|
    |-111111999-8-8-8-8-8-8777777555555-|
    |-111111999-------------------------|
    
    BRIDGE…
  • Tuning: A# F A# D# G C
    
    / - Slide up
     - Slide down
    PM - Palm mute notes that have a - under them
    
    Intro (clean)
    |-------------------------------------------------------------------|
    |-------------------------------------------------------------------|
    |---0-----0-----0-----0-----0-----0-----0-----0-----0-----0-----0---|
    |-----0-----0-----0-----0-----0-----0-----------------0-----0-----0-|
    |-0-----1-----3-----------0-----1-----3---5-----1-0-----1-----3-----|
    |-------------------5-----------------------5-----------------------|
    
    
    |---------------------------|
    |---------------------------|
    |---0-----0-----0-----0-----|…
  • Tuning: C G C F A D
    
    Riff 1:
    D-----------------------------
    A-----------------------------
    F-----------------------------
    C----------------------444444-
    G------------------1/2-222222-
    C-00000-00000-000--1/2--------
    pm.....…
  • tuning:dropped d
    
    verse (repeat)
    /------------------------------------------------------------------------/
    /------------------------------------------------------------------------/
    /----------------------------------------------------------------4-------/
    /----1-1-1-1-2-----1-1----4-5-4-----1-1-1-1-2------1-1------4-5-----5-0--/
    /------------------------------------------------------------------------/
    /-2-------------2------0---------2-------------2--------0----------------/
    
    bridge
    /----------------------------------------/
    /---------3------------------------------/
    /-----------4----------------------------/
    /----4-5------5---------4-4-5--5-4-5-----/
    /----------------------------------------/
    /-2---------------0-2-----------------0--/
    
    interlude
    /------------------------------/
    /-8-7-----11-10------------10--/
    /-----7----------12-11-12------/
    /------------------------------/
    /------------------------------/
    /------------------------------/
    
    chrous…
  • Tune down 1/2 step Drop D (Db Ab Db Gb Bb Eb)
    
    Intro
    Db|--------------------------------|
    Ab|--------------------------------|
    Db|--------------------------------|
    Gb|-0-3-4-3------------------------|
    Bb|-0-3-4-3------------------------|
    Eb|-0-3-4-3--0-3-0-0-3-0-0-3-0-3-0-|
    PM…
  • Drop D tuning: 
    
    |-----------------------------------------------------------------|
    |-----------------------------------------------------------------|
    |-----------------------------------------------------------------|
    |-7-0-0-7-0-0-7-0-0-7-0-0-7-0-7-0-6-0-0-6-0-0-6-0-0-6-0-0-6-0-6-0-|
    |-7-0-0-7-0-0-7-0-0-7-0-0-7-0-7-0-6-0-0-6-0-0-6-0-0-6-0-0-6-0-6-0-|
    
    |-----------------------------------------------------------------|
    |-----------------------------------------------------------------|
    |-----------------------------------------------------------------|
    |-3-0-0-3-0-0-3-0-0-3-0-0-3-0-3-0-4-0-0-4-0-0-4-0-0-4-0-0-10-10---|
    |-3-0-0-3-0-0-3-0-0-3-0-0-3-0-3-0-4-0-0-4-0-0-4-0-0-4-0-0-10-10---|…
  • Tuning: CGCFAD
    
    Intro
    D|-------------|
    A|-------------|
    F|-------------|
    C|-------------|
    G|-----6-6-----|
    C|-555-----6-6-|
    PM _/
    
    Verse
    D|---------------------------------------|
    A|---------------------------------------|
    F|---------------------------------------|
    C|---------------------------------------|
    G|-------------------------------6-6-----|
    C|-2h3-3-3-3-2-2-2-2-2h3-3-3-555-----6-6-|
    PM…
  • Tune down 1/2 step.
     Dropped D Tuning  
     
     Intro (play 2x)
     (Riff-1)
    E|-----------------------------------|-------------------------------------|
    B|-----------------------------------|-------------------------------------|
    G|-----------------------------------|-------------------------------------|
    D|-----------------------------------|-------------------------------------|
    A|-----------------------------------|-------------------------------------|
    E|--6-0-0-0-6-0-0-4-6-0-4-6-0-7-6-4--|--6-0-0-7-0-0-10-0-0-7-0-0-6-4-6-/7--|…
  • Tuning: G,D,A,C#
    
    Intro:
    G |-------------------------------------------------------------|
    D |-------------------------------------------------------------|
    A |-------------------------------------------------------------|
    C#|-0-0-0-0-12-12-0-0-0-0-12-10h12-0-0-0-0-10-10-0-0-0-0-10-8h10|
    
    G…
  • Tuning: Drop D
    
    Riff 1:
    E-------------------------------------------------------------------------------------------------------------
    B-------------------------------------------------------------------------------------------------------------
    G-------------------------------------------------------------------------------------------------------------
    D-------------------------------------------------------------------------------------------------------------
    A-5----5---444--3/2------2/3------3/2------6/7777-3/2------2/3------3/2------55----555------3/2------2/3------
    D-5-00-5-0-444--3/2-0000-2/3-0000-3/2-0000-6/7777-3/2-0000-2/3-0000-3/2-0000-55-00-555-0000-3/2-0000-2/3-0000-
    pm…
  • Tuning: CGCFAD
    
    Intro
    D|------------------|-------------------------|
    A|------------------|-------------------------|
    F|-----5----------5-|-------------------------|
    C|---3----------3---|-3-3-3-3-3-3-2-2-2-2-2-2-|
    G|-1----------4-----|-3-3-3-3-3-3-2-2-2-2-2-2-|
    C|----------4-------|-3-3-3-3-3-3-2-2-2-2-2-2-|…
  • Tuning: 1/2 Step Down, Drop D
    
    INTRO:
    |-------------------|
    |-------------------|
    |-13-13-13-13-13-13-|
    |--X--X--X--X--X--X-|
    |-11-11-11-11-11-11-|
    |-------------------|
    
    VERSE:
    |---------------------------|
    |---------------------------|
    |---------------------------|
    |---------------------------|
    |------5------------5-------|
    |-8-00---6-5-3-8-00---6-5-3-|
    PM…
  • Tuning: Drop D
    
    Riff 1:
    E--------------------------------------
    B--------------------------------------
    G--------------------------------------
    D--------------------------------55-77-
    A-11-11-11-11--33----33----33----33-55-
    D-11-11-11-11--33-00-33-00-33-00-------
    pm…
  • Tuning: CGCFAD
    
    Verse
    D|-----------------------------------|
    A|-----------------------------------|
    F|---------------------------------7-|
    C|-8--8--8-8h10-8-5-7------7p5-5-5-7-|
    G|-8--8--8-8h10p8-5-7------7p5-5-5-5-|
    C|-8--8--8-8h10p8-5-7-7777-7p5-5-5---|…
  • Tuning : half step down dropped c#,g#,c#,f#,a#,d#
    
      during the verse play this with palm mutes pretty much
    except the 2's are fast and the other guitar is just hitting opens
    |---------------------------------------------|
    |---------------------------------------------|
    |---------------------------------------------|
    |---------------------------------------------|
    |-0-2-2-2-0-6-0-3-6-6--0-2-2-2-0-6-0-3-4-4----|
    |-0-2-2-2-0-6-0-3-6-6--0-2-2-2-0-6-0-3-4-4----|
    
    During…
  • Tuning: 1/2 Step Down, Drop D
    
    INTRO:
    |------------------------------------------------------------|
    |------------------------------------------------------------|
    |------------------------------------------------------------|
    |------------------------------------------------------------|
    |------------------------------------------------------------|
    |-20232-02-0232020232-02-0232020232-02-0232020232-02-0235320-|
    
    MAIN…
  • Tuning: Drop D
    
    Riff 1:
    E---------------------------------------------------
    B---------------------------------------------------
    G---------------------------------------------------
    D---------------------------------------------------
    A----3-4-5-6----3-4-5-6---------4-5-6-7-----4-5-6-7-
    D-0-----------0--------------0-----------0----------
    
    Riff…
Наверх