Аккорды «O.A.R.»

O.A.R.
Американская рок-группа O.A.R. была образована в 1996 году и с тех пор радует своих поклонников качественным роком. На счету группы уже семь полноценных студийных альбомов, и она не собирается останавливаться на достигнутом. Первые два альбома группы были не особо тепло восприняты публикой и критиками, но уже после третьего альбома, вышедшего в 2001 году, к группе пришла популярность. Интересным фактом из биографии группы является то, что на раннем этапе своего творчества они не стремились активно… Читать полностью... Американская рок-группа O.A.R. была образована в 1996 году и с тех пор радует своих поклонников качественным роком. На счету группы уже семь полноценных студийных альбомов, и она не собирается останавливаться на достигнутом. Первые два альбома группы были не особо тепло восприняты публикой и критиками, но уже после третьего альбома, вышедшего в 2001 году, к группе пришла популярность. Интересным фактом из биографии группы является то, что на раннем этапе своего творчества они не стремились активно использовать рекламу, а надеялись на то, что понятливый слушатель сам поймет, нравится ли ему группа или нет. Такая тактика, по словам лидера группы, была подобна сумасшедшей игре в покер, где было непонятно, на что ставить и кто победит. Но такая тактика вполне оправдала себя, и сейчас группа является довольно известной не только у себя на родине, но и во всем мире. В 2012 году участники группы принимают участие в благотворительном концерте для одной из школ штата Огайо, а некоторое время спустя их песня «Love is Worth The Fall» вошла в саундтрек к известному фильму «Сумерки». Группа активно занимается благотворительностью. В 2011 году две их песни вошли в документальный фильм о Стиве Джобсе. Скрыть...
Популярные аккорды O.A.R.:
алфавиту | просмотрам | случайно
  • Here Are the chords for the entire song:
    C- 032010
    G- 320003 (or 320033)
    Amin- 002210
    Asus2- 002200
    F- 133211
    
    Oh my...
    
    C                   G        Amin   F
    Throw the girls on down in my fancy bridge
           C       G…
  • INTRO:
    -|-0----------0---------0---------0---|-
    -|-1----------1---------1---------1---|-
    -|-0h2--------0h2-------0h2-------0h2-|-
    -|-0h2--------0h2-------0h2-------0h2-|-
    -|------------------------------------|-
    -|------------------------------------|-…
  • The basic strumming pattern in this song G Am C
    
    Start off with the G then switch to the Am then to the C
    
    G                                                       Am
    There was a man on the road bout an hour ago and…
  • 2:13
    -3p0---------------------------------------------------------|
    -----3p0-----------------------------------------------------|
    ---------2p0-----0---2---0---2---2---2---0---2---0---2---0---|
    -------------2p0---------------------------------------------|
    -------------------------------------------------------------|
    -------------------------------------------------------------|
    
    2:18
    -----12--12--12------12--12--12------15--15--12--15--12--15--12-|
    -----12--12--12------12--12--12------15--15--12--15--12--15--12-|
    ----------------------------------------------------------------|
    ----------------------------------------------------------------|
    ----------------------------------------------------------------|
    ----------------------------------------------------------------|
    
    6…
  • Intro chords - C, Em, F, G, F, Em, C
    play open chords
    
    C        Em      F   G       F      Em             C
    Amazing how we all want this life a little more everyday.
        Em      F       G                       F…
  • chorus:
    G-----------------------------------
    D-----------------------5-5--7------
    A---------------5--55---------------
    E-5--55--5/35----------------------
    
    verse:
    G------------------------------------
    D---------------------------0-0-2----
    A--------2--22--0--00-----4---------4…
  • E -15-17-------------------------------------------------------------------|
     B 12-----17-14h15p14-12---12----------------------12-b13-b1314-15-15-15----|
     G ---------------------14----14-11-14--11-11-14-14-------------------------|…
  • Intro/Verse
    
    e---0---0---
    b---0---0---
    g---1---1---
    d---2---2---
    a---2---0---
    E---0---0---
    
    Pre-Chorus
    
    e---0---0---0---0--- (these are the chords, but you can figure out the
    b---0---0---0---0---  single notes that are played.)
    g---1---1---1---1---
    d---2---2---2---2---
    a---2---0---0---0---
    E---0---0---2---0---
    
    Chorus
    
    e---0---0---0---0---0---0---2---…
  • Standard Tuning (EADGBE)
    
    
    E|--12-12----12-12-----12-------12-------------14----14/12----12--12-12-11-9
    B|------------------10----10--9----9/10--10/12----12-------12---------------
    G|--------------------------------------------------------------------------
    D|--------------------------------------------------------------------------
    A|--------------------------------------------------------------------------
    E|--------------------------------------------------------------------------
    
    
    E|--12-11-9-7---------------------------------------------------------------
    B|------------10-9-7-5--7^7^7^--5-5--0---5-7^7^7^7^--7-7--5-5h7h5-0---5-7---
    G|-------------------------------------6----------------------------6-------
    D|--------------------------------------------------------------------------
    A|--------------------------------------------------------------------------
    E|--------------------------------------------------------------------------
    
    
    E|--4-5-4-5/7-7-7/9---14-14-14-14-14-14-14/12-12-12---12---12---12-12-12----
    B|--------------------------------------------------------------------------
    G|--------------------------------------------------------------------------
    D|--------------------------------------------------------------------------
    A|--------------------------------------------------------------------------
    E|--------------------------------------------------------------------------
    
    
    E|--12-12-12/11-11-11/9-9-9-7-----------------------------------4-5--5/7----
    B|----------------------------10-10/9-7-5---0---5-7^7^7^-5--5-7-------------
    G|----------------------------------------6---6-----------------------------
    D|--------------------------------------------------------------------------
    A|--------------------------------------------------------------------------
    E|--------------------------------------------------------------------------…
  • C                                               G
    In the end my friend we will all be together again,
                         Am                        F
    clutchin' on to my hand, in the valley with sand,…
  • Verse:
    
    C - Em - Am - G
    
    
    Chorus
    (listen to the song for the rhythm):
    
    If one guitar plays the chords over the other rhythm it sounds
    really cool
    
       F       G       C
    E--5-5-5---7-7-7---12-12-12--|
    B--6-6-6---8-8-8---13-13-13--|
    G----------------------------|
    D----------------------------|
    A----------------------------|
    E----------------------------|
    
    
    Love…
  • There are two guitar's in this song playing versions of this, i just combined them. It's 
    easy.
    
    e--10-10-10-10--8-8--9/10--10-10-10-10--8-8--9/10--|
    B--10-10-10-10--8-8--9/10--10-10-10-10--8-8--9/10--|
    G--------------------------------------------------|
    D--------------------------------------------------|
    A--------------------------------------------------|
    E…
  • This is in the key of A sharp major
    
    ------------------------------------------------------------------------------|
    -------------3-3----------------5-5-------------------------------------------|
    -------------3-3-1--------------5-5-3-----------------------------------------|
    -------------3-3----------------5-5--------------------88-33------------------|
    -------1-1---3-3----3-3/5-3------------3-5-5/8-6-------66-11-33xx33-----------|
    -1-1-3-----3----------------5-3------------------8-6-8-------11xx11-----------|…
  • The chords for this are E, B, A, B
    Keep chuggin on that.  If you wanna toss in the little turn around
    riff that he plays, it goes a little something like this:
    e---------------------------|
    B---------------------------|
    G--------2-4p2--------------|
    D----2h4-------4------------|
    A---------------------------|
    E---------------------------|…
  • Here are a few versions of the song I've seen.
    
    1. Bar Chords
    E-----5--7--5--|
    B-----5--7--5--|
    G--1--6--8--6--|
    D--2--7--9--7--|
    A--2--7--9--7--|
    E-----5--7--5--|
    
    2. Chords (Easiest)
    E--------------|
    B-----2--4--2--|
    G--1--2--4--2--|
    D--2--2--4--2--|
    A--2-----------|
    E--------------|
    
    3.…
  • Standard Tuning
    ------------------------
    
    Intro (bass riff) if your on a guitar, you might want to play the notes on the D
    and G strings one octave lower
    
    e|--------------------------|
    B|--------------------------|
    G|--------------------14----|
    D|----14h16-----14h16-------|
    A|-0---------0--------------|
    E|--------------------------|
    
    --------
    Intro…
  • ------------------------------------------------------------------------------|
    -8/10-8-7-8-7-5-3---0h3-3--5-5/7-5-3-5--7-7/10-8-7-8-5-3----------------------|
    ------------------------------------------------------------------------------|
    ------------------------------------------------------------------------------|
    ------------------------------------------------------------------------------|
    ------------------------------------------------------------------------------|…
  • Beginning to about 0:46 (Verse Riff)
    G---------|----------|---------|----------|
    D-5-------|----------|---------|------2-3-|
    A-----7b8-|-5----5/7-|-0-------|-33-------|  x8
    E---------|----------|---------|----------|
    
    
    Chorus…
  • Pretty much the whole verse and chorus is played as follows
    G, then B, with a quick slide up to c, and then d.  Play all barre chords..
    
    if you have any questions, email me at qcylax944@hotmail.com
    
    E--3--7-8--10-------------------------------------------------------|
    B--3--7-8--10-------------------------------------------------------|
    G--4--8-9--11-------------------------------------------------------|
    D--5--9-10-12-------------------------------------------------------|
    A--5--9-10-12-------------------------------------------------------|
    E--3--7-8--10-------------------------------------------------------|
    theres…
  • Verse
    E|---------2-0---------------|
    B|---------2-0---------------|
    G|-------------4-4-2-2-------|
    D|---2-2-2-----4-4-2-2-------|
    A|---2-2-2-----2-2-0-0-------|
    E|---0-0-0-------------------|
    
    
        Chorus
    E|---------------------------|
    B|---------------------------|
    G|---2-2-4-4-2-2-------------|
    D|---2-2-4-4-2-2-------------|
    A|---0-0-2-2-0-0-------------|
    E|---------------------------|…
  • The chords for this one are D and G.  Just go between them and for
    the first line of each verse hit the D, let the lyrics go, and don't
    play the G, then start on the D again when it gets to that time.
    The stumming pattern…
  • C	Cadd9      F                G                F                   C
    
    I don't know nothing, and I don't know a thing
    But if I just keep on listening then together we'll sing
    (Repeat Above Pattern)
    I been walking for about…
  • This is in the key of F major
    
    ---------1-1-----3-3----3-3----1----------------------------------------------|
    ---------1-1-----4-4----3-3----2----------------------------------------------|
    ---------2-2-----5-5----4-4----3----------------------------------------------|
    ---------3-3-----5-5----5-5----3----------------------------------------------|
    ---------3-3-----3-3----5-5----1----------------------------------------------|
    ---------1-1------------3-3---------------------------------------------------|…
Наверх