Аккорды «Обе Две»

Обе Две
г. Екатеринбург Коллектив «Обе Две» был основан в 2006 году и является заметным астрономическим объектом в галактике молодых уральских исполнителей. Уникальный поп-рок проект. Уникальная лирика и своя харизматичность. Тексты про любовь и то чего не хватает в жизни людей - отдаления от цивилизации, свободы и чувства любви. Состав: Екатерина Павлова: вокал Артем Клименко: бас-гитара Николай Алексеев: гитара Антон Шохирев: барабаны Михаил Ендза (Нинзя): звукорежиссер Татьяна Журавская:… Читать полностью... г. Екатеринбург Коллектив «Обе Две» был основан в 2006 году и является заметным астрономическим объектом в галактике молодых уральских исполнителей. Уникальный поп-рок проект. Уникальная лирика и своя харизматичность. Тексты про любовь и то чего не хватает в жизни людей - отдаления от цивилизации, свободы и чувства любви. Состав: Екатерина Павлова: вокал Артем Клименко: бас-гитара Николай Алексеев: гитара Антон Шохирев: барабаны Михаил Ендза (Нинзя): звукорежиссер Татьяна Журавская: директор Скрыть...
Популярные аккорды Обе Две:
алфавиту | просмотрам | случайно
  • КУПЛЕТ (B | A || Dm)
    4)--3----------------------------3--------------------------3---------------------------------
    5)-------1------1---0---------------1------1---0--------------1------1---0------------------5-
    6)-----------1---------------------------1--------------------------1-----------------4---5---
    
    ПРОЙГРЫШ…
  • Dm Dm Am G
    Когда тебя не было, милый, я злилась сама и злила
    Проезжавшие мимо машины и каждый второй светофор.
    Когда тебя не было, милый, что-то происходило,
    Точно происходило, но что — не помню в упор.
    Когда тебя не…
  • ВСТУПЛЕНИЕ
    3)------6--------6--------6------------6--------6-------6-------------6--------6--------6------------6--------6-------6-
    4)-8--------8--------8--------8---6--------6-------6--------6---5--------5--------5--------5---4--------4--------4----
    
    КУПЛЕТ…
  • Em        Am (Am7)
    Я люблю тебя, детка Кетти! 
    B         Em
    Я вчера пинал зимний ветер. 
    Em        Am     C7         B7
    Я запомнил твои рисунки пальцами по спине... 
     
    Помнишь мы раздували слёзы? 
    вспомни, детка,…
  • КУПЛЕТ:
    Gm
    Накрывает город вечер
    A#6 (можно заменить A#)
    Ты идешь один с работы
    Cm Csus2
    И раздолбанные боты
    F Gm 
    Только в луже только так
    (и так далее)
    
    ПРИПЕВ:
    Cm F
    Ты мечтаешь записать одну пластинку
    D…
  • КУПЛЕТ:
    Am/C  (C) Am/B (E7)
    вышли мне уведомление
    Am/E (Am) F+7 (F)
    скажи, что все хорошо
    Am/C Am/B
    из личных соображений
    (Am/E Am/B)                }2 раза
    для совести удовлетворения
    (и так далее)
    
    ПРОИГРЫШ:
    2)----------8-------------8------------5--------------
    3)--------------------------------------7-----------0-
    4)------10------------10-------------------------4----
    5)----------------------------------7------------2----
    6)--8------------10---------------------------0-------
    
    ПРИПЕВ:
    C…
  • C
    я хочу с тобою рядом 
    Am
    растекаться шоколадной смесью
    C    Am
    нас двоих и остальных твоих
    C
    я не замечу тебя злого
    Am
    да, что такого 
    C
    смотри сквозь меня или на запад 
    Am | A
    я там жду ветров
    H…
  • Куплет:
    C#m E B
    Из-под ваших пальцев Это было, как измена:
    (и так далее)
    
    Припев:
    G# F#m E
    Что Вам стоит? Спорит. Стонет. 
    B
    Стираю историю, sorry. 
    C#m E
    Что я там о Вас не узнала? 
    F#m A
    Просто я путаю Kenzo…
  • Вступление: Gm7 D# D
    
    Gm        Gm7     D#  D
    Уезжаешь-уезжай,я ведь не обижусь
    Gm        Gm7     D#      F
    Ты почаще вспоминай, раз с тобой не вижусь
    A#        A#7      D#      D
    Как приедешь, приходи, буду очень…
  • Припев:  
    Gm 
    Я надену пышную пачку
     B
    Уеду, уеду с талантливым мальчиком
     D7
    На красивую белую дачу
    Одураченной
    
    1.Тону тонами полутонами диско
    Кому стонами, кому с нами
    Целую осень без алкоголя стоя
    Стоит или…
  • Всю песню в принципе можно сыграть на двух аккордах 
    Dm | Am или Dm | F | Am | C
    Для большей мелодичности используем вставки бас-партии. 
    Например вот так (кому как нравится):
    
    ВСТУПЛЕНИЕ
    3)---------5-------------7------------5-----------------
    4)------7--------------9-----------7--------------9-9---
    5)-----------------7--------------------------7----------
    6)--5---------------------------5-------------------------
    
    3)---------9-------------7-------------------------7---
    4)------7--------------9-----------7--7--------5------
    5)--8--------------7------------8----------------------
    
    D5/A…
  • ВСТУПЛЕНИЕ:
    3)------5------5--^-2-----2-2----2------2-----2-2------2---2----2------
    6)---0-----0------0-----2------2------2-----2--------2-----3----3-------- 
    ^-переход
    
    КУПЛЕТ: (табы как во вступлении)
    
    ПРИПЕВ:
    C…
  • КУПЛЕТ:
    C
    Что мне осталось?
    B
    Zaraman и кофе без всего.
    Ну как спалось? Ничего? 
    Мне тоже ничего. 
    Что мне осталось? 
    Ничего. Ты тоже ничего. 
    Улыбаюсь ли, каюсь. Остаюсь.
    
    ПРИПЕВ:
    Em D
    По рукам, по рукам. Ты…
  • ВСТУПЛЕНИЕ: Gm D# D
    
    КУПЛЕТ:
    Gm
    Ненадолго спасает лето
    D# D#m
    снова гладкий в воде луч всета
    Gm
    снова капли воды на стеклах
    D# F
    снова брызги варенья в окнах
    B
    это бред это все не ново
    D
    надо бы подобрать три…
  • ВСТУПЛЕНИЕ: Em F }3p D B
    
    КУПЛЕТ:
    Em
    немного терпения
    D 
    сколько же времени
    Em
    теряется зрение
    Am
    жду без сомнения
    Em
    на старых облучинах 
    D
    прическа колючая
    Am
    привычки изучены
    C
    прицелом измученным
    
    ПРИПЕВ:
    Em
    да…
  • КУПЛЕТ:
    Am Am/C A#/A
    Я хочу, чтоб ты снял меня голой, 
    Csus2 F F/C E
    Чтоб притворялся богом, хотя про бога и так уже много,
    E/C E/B
    Так что просто снимай.
    Я хочу, чтоб ты снял меня с поезда, - 
    мне самолеты разонравились,…
  • Аккорды: Em A Fm B7
     
    Быстрыми резкими, да по острому тонкими, 
    Своими новыми голыми от тебя без тебя, 
    Я снова яркая красная и ты хочешь наверное, 
    Но боишься как правило и теряешь меня, 
    
    Припев:
    И я ничья, больная,…
  • Вступление: Bm G F#m
    
    Em
    Утром ветром с крыш
    Падаю в асфальт,
    C (Без второй зажатой струны C)
    Падаю как лед
                    A (Без второй зажатой струны C#)
    В мелочи — все твое.
    Em
    Отмени мой день,
    Разреши мне…
  • ВСТУПЛЕНИЕ
    
    H(no5) G(no5) Fm(no5) - (как альтернатива H G Fm)
    
    H(VII лад)___Dadd9/B___Asus4/B
    Am(V лад)___Am7*____Am7
    
    3)----12------------11------------
    4)---------11--10-------10--9----
    
    КУПЛЕТ
    
    H(no5)________________Am(no5)
    Такое…
  • Intro: A# Gm D#
    
    КУПЛЕТ:
    A#
    Из крана по капелькам
    Gm D#
    Льются, падают слёзы
    A#
    Горячие с паром
    Gm
    Зачем ты так рвёшься
    D#
    В свою неизвестность
    A#
    По камешкам боли
    Gm
    Не чувствуешь неба
    D# D#m
    Оно для тебя…
  • КУПЛЕТ:
    2)---------------------5-----------------------------------------------5--------------------------------
    3)---------5----------7----------------9-------------4----------------7------------5--------------8---
    4)---------7----------5----------------7-------------2----------------5------------7--------------9---
    5)---0-----------7-------------8---------------3---------------7-------------0-------------0-----------
    6)---5------
    
    ПРИПЕВ:
    2)----------------------------5-----------------------------------
    3)-----------4-------------7-------------9-----10-9------9-----
    4)---------2----------------------------7---------------------7--
    5)-----3-----------3----7-------7---8-------8--------8----------
    
    2)----------------------------5-----------------------------
    3)-----------4-------------7---------------5-------5-4----
    4)---------2----------------------------7-------------------
    5)-----3-----------3----7-------7---0---------0-----------
    
    Были…
  • D(V) Gm
    Мне на трап через час
    D(V) Gm
    Не смотри мне в глаза
    Cm F A#6
    Не держи, не спасай меня
    D(V) Gm
    В этот раз навсегда
    D(V) Gm
    Ветер слезы раздул
    D(V) Gm
    Это ты, а не я
    Cm F A#6
    На кусочки разбей мою тень
    D(V)…
Наверх