Аккорды «Obituary»

Obituary
Всё началось в 1984 году в солнечном, тихом городке Brandon, когда братья Джон (вокал) и Дональд Тарди (ударные) вместе с гитаристом Тревором Пересом основали группу с нежным названием “Xecutioner”. Бас-гитарист Даниэль Тракер и гитарист Аллен Вест в немалой степени способствовали качественному звучанию группы, а также появлению определённой жёсткости в первых же композициях. Новые участники подняли и без того значительный агрессивный потенциал основателей на новый уровень. В таком составе группа,… Читать полностью... Всё началось в 1984 году в солнечном, тихом городке Brandon, когда братья Джон (вокал) и Дональд Тарди (ударные) вместе с гитаристом Тревором Пересом основали группу с нежным названием “Xecutioner”. Бас-гитарист Даниэль Тракер и гитарист Аллен Вест в немалой степени способствовали качественному звучанию группы, а также появлению определённой жёсткости в первых же композициях. Новые участники подняли и без того значительный агрессивный потенциал основателей на новый уровень. В таком составе группа, работающая в стиле “Death Metal” и ставшая в ходе своей стремительной карьеры ориентиром для многих новичков, записала первые композиции. Одна из них принесла группе, которая за это время была переименована в Obituary, контракт с Roadrunner Records, в рамках которого вышли следующие альбомы. С вышедшим в 1989 году монументальным «металлическим» творением “Slowly We Rot” пятеро музыкантов из Флориды быстро заняли достойное место в рамках тогда ещё молодой американской альтернативной сцены. Вместе с такими группами, как Morbid Angel, Death и Deicide, они сформировали жанр, сочетающий в себе небывалые доселе супербыстрые гитарные пассажи, динамичные ударные, комплексные аранжировки и экстремальный вокал. Именно в отношении последней составляющей великолепно проявил себя солист группы Джон, так как он отказался от лирических текстов, а использовал свой потрясающий голос более как «инструмент», что нашло своё выражение и в рамках второго альбома группы “Cause Of Death”. В 1992 году произошло очередное событие в творческой карьере группы: третья пластинка “The End Complete” способствовала окончательному и заслуженному прорыву группы. “The End Complete” – одно из вечных произведений в рамках этого музыкального жанра и первый «металлический» альбом, которому удалось войти немецкий ТОР 100. Следующий релиз 1994 года “World Demise” являлся не только с точки зрения текстов, но и в отношении общего направления «настоящим концом света» и подарил многочисленным фанатам и другие «металлические» гимны, такие, как: “Final Thoughts” и “Don’t Care”, которые даже сегодня, при обилии альтернативных команд на музыкальной сцене, остаются популярными и обязательно входят в программу выступлений группы. После трёхлетнего затишья в 1997 году вышла пятая пластинка Obituary – “Back From The Dead”, которая вызвала вздох облегчения у множества поклонников, воспринявших её как признак жизни со стороны любимой группы. Пластинка содержала стопроцентные хиты альтернативного жанра, такие, как: “Threatening Skies”, “Download” или “By The Light”, и ещё раз доказала, что группа ещё далеко не мертва. То, что Obituary, с начала своей творческой карьеры, была и остаётся одной из экстремальнейших альтернативных команд, вскоре станет ясным даже для тех, кто не имел возможность в этом убедиться – седьмой альбом группы “Anthology” представляет действительно лучшие хиты. Скрыть...
Популярные аккорды Obituary:
алфавиту | просмотрам | случайно
  • intro
    verse
    G-----------------------------------------------------------!!--------------------------!!-----------------!!
    D-----------------------------------------------------------!!---4-3-----------6-5-----!!-----------------!!
    A------------------6-5------4-3-----6-5-----4-3----------!!---------6-----------6----!!-----------------!!
    E---1----3----3--------3--------3--------3----------------!!------------00--------00--!!---0------------!!…
  • RIFFS:
    
    #1
    E ----------------------------------------------------------------
    B ----------------------------------------------------------------
    G ----------------------------------------------------------------
    D ----------------------------------------------------------------
    A…
  • Tuning: Down 1 Step(DGCFAD)
    
    
                    --3-2-5--222222----3-2-5--222222----3-2-5--222222-888888777777--
                    --3-2-5--222222----3-2-5--222222----3-2-5--222222-888888777777--
    Main            --1-0-3--000000----1-0-3--000000----1-0-3--000000-666666555555--…
  • Riff 1
    
     "Words of Evil!!...evil...evil"
    
    |-------------------------------|x6
    |-------------------------------|
    |-------------------------------|
    |-------------------------4-----|
    |--2--------5-4--2--------2-3---|
    |--0-00000--3-2--0-00000----1---|
    
    
    Riff…
  • (intro)
    Riff A:
    		----------------------------------------------------------------------
    		----------------------------------------------------------------------
    		----------------------------------------------------------------------
    		-------0-0----0-0-0-0-------0-0----0-0-0-0----------------------------
    		-------0-0----0-0-0-0-------0-0----0-0-0-0----------------------------
    		-------0-0----0-0-0-0-------0-0----0-0-0-0----------------------------…
  • Riff A:
    [e:---------------------------------------
    b:---------------------------------------
    g:---------------------------------------
    D:------4---------3---------4------------
    A:-4----2----3----1----4----2----5----3--
    E:-2----2----1----1----2----2----3----1--]
    Riff…
  • Tuning: DGCFAD
    
     .   palm mute
    (")  optional note 
     ~   let ring
    
    Main Riff
    |-----------------------------------------------------|
    |-----------------------------------------------------|
    |-----------------------------------------------------|
    |----------3-----------------6---------5-----------3--|
    |2----3----1-----3--2-2---5--4----5----3----2-2-3--1--|
    |0----1----------1--0-0---3-------3---------0-0-1-----|…
  • Drop-D-Tuning
    
                                                              
    Intro:
             Let ring              ??x
    E---||-------------------------||---------------------------------------
    B---||-------------------------||---------------------------------------
    G---||*-----7-----7--8--7-----*||---------------------------------------
    D---||*--------7--------------*||---------------------------------------
    A---||---0---------------------||--0--0--0--0--0--0--0------------------
    D---||---0---------------------||--0--0--0--0--0--0--0------------------
    
    
    Main…
  • Standard Tuning: "E"A"D"G"B"E"
    
    Riff 1
    |------------------------------------|
    |------------------------------------|
    |------------------------------------|
    |------------------------------------|
    |--22023333220233332202333366665555--|
    |------------------------------------|
    
    
    Riff…
  • Tuning:D standard 
    
    |-----------------------------------------|
    |-----------------------------------------|
    |-----------------------------------------|
    |-----------------------------------------|
    |2-2--------5-5--------4-4--------7/8-8-3-|
    |0-0--0000--3-3--0000--2-2--0000--5/6-6-1-|
    
    |-----------------------------------------|
    |-----------------------------------------|
    |-----------------------------------------|
    |-----------------------------------------|…
  • ------------------------------------------------------------------------------
    ------------------------------------------------------------------------------
    -----4------------------------------------------------------------------------
    ---4--------5------7--4-------------------------------------------------------
    -2--------5------7----4-------------------------------------------------------
    --------3------5------2-------------------------------------------------------…
  • NOTATION LEGEND
    ---------------
    PM--|  |---| Palm Mute
    H hammer on
    P pull off
     slide
    BD bar dive
    BU bar up
    < > pick harmonics
    ~ vibrato   
    
    E|--------------------------------------------------------------------------|
    B|--------------------------------------------------------------------------|
    G|--BU--------BU-----5~--4-5~-4----5-4-7-5-4--------------------------------|
    D|--/5---------/9----------------------------7-5-4-~----4h5p4------------|
    A|---------------------------------------------------------------7-5-4-5-7--|
    E|--------------------------------------------------------------------------|…
  • Tuning:Down 1 whole step (DGCFAD)
    
                        -------------------3------------------------------------
                        ----2--22--2--22--3--3------2--22--2--22--5---3-------
    Main                ----2--22--2--22--1--3------2--22--2--22--5---3-------…
  • Tuning:"D"G"C"F"A"D
    
    
    Riff 1 - A
    |------------------------------------------------------|
    |------------------------------------------------------|
    |------------------------------------------------------| Gtr I
    |--------5-\-6----3-\-4-/-3--------5-\-6---------------|
    |--------3-\-4----1-\-2-/-1--------3-\-4----3-\-4-\-3--|
    |--0--0----------------------0--0-----------1-\-2-\-1--|
    pm…
  • RIFFS:
    
    #1
    E ----------------------------------------------------------------
    B ----------------------------------------------------------------
    G ----------------------------------------------------------------
    D ----------------------------------------------------------------
    A…
  • Tuning: "D"G"C"F"A"D" 
    
    Fill 1
    |------------| 
    |------------| 
    |------------| 
    |------------| 
    |--5----3----| 
    |--3----1----| 
    
    Riff 1 
    |-------------------------------------------| 
    |-------------------------------------------|…
  • RIFF A:                       RIFF A2:
    e:---------------------------|------------------------------------|
    b:---------------------------|------------------------------------|
    g:---------------------------|------------------------------------|
    D:---------------------------|------------------------------------|
    A:-2--2---3---5---3--3----2--|------------------2--3--5--3--3--2--|
    E:-0--0---1---3---1--1----0--|-0000000000000000-0--1--3--1--1--0--|…
  • Tuning: "D"G"C"F"A"D" 
    
    
    Riff 1 
    |-------------------------------------------------------------| 
    |-------------------------------------------------------------| 
    |-------------------------------------------------------------|…
  • Tunning: "D"G"C"F"A"D" 
    
    Riff 1
    |----------------------------------------|
    |----------------------------------------|
    |----------------------------------------|
    |--3--2-------------------------------5--|
    |--1--0-------2-------3-------5-------3--|
    |--------0000-0--0000-1--0000-3--0000----|…
  • #1-PLAY THIS DOUBLE TIME(REAL FAST)
    E -------------------------------------------------------
    B -------------------------------------------------------
    G -------------------------------------------------------
    D -------------------------------------------------------
    A…
  • Tuning: "D"G"C"F"A"D
    
    
    Riff 1
    |---------------------------------------------------------|
    |---------------------------------------------------------|
    |---------------------------------------------------------|
    |-----------8---------------------------------------------|
    |--2--------6--------7------------------------------------|
    |--0---0000-----0000-5---0-0-0-0-0-0-0-0-5-5-5-5-5-5-5-5--|…
  • Tuning: Down one step(DGCFAD)
    
    
                    --2-2-2-2-5---2-2-2-2-8-7---2-2-2-2-3---2-2-2-2-6-5---
                    --2-2-2-2-5---2-2-2-2-8-7---2-2-2-2-3---2-2-2-2-6-5---
    Main            --0-0-0-0-3---0-0-0-0-6-5---0-0-0-0-1---0-0-0-0-4-3---…
  • Tuning: "D"G"C"F"A"D"
    
    
     Fill 1
    ||--------------------------||
    ||--------------------------||
    ||--------------------------||
    ||--------------------------||
    ||-----------3-----------5--||
    ||--0-0-0-0--1--0-0-0-0--3--||
    pm…
  • RIFFS:
    
    #1
    E -------------------------------------------------------
    B -------------------------------------------------------
    G -------------------------------------------------------
    D -------------------------------------------------------
    A…
  • Standard Tuning: "E"A"D"G"B"E"
    
    Riff 1-A
    |-----------------------------------|
    |-----------------------------------|
    |-----------------------------------|
    |--2-------3-------5----------------|
    |--0--0000-1--0000-3--0000----------|
    |-------------------------11111111--|…
  • Tune down 1/2 step
    
    /  = slide
    .  = Palm Mute
    
    Intro       4 times
    |-------------------|
    |-------------------|
    |-------------------|
    |-----------5---63-|
    |-2----5----3---41-|
    |-0-00-3-00---00----|
        ..   ..   ..
    
    Riff…
  • Tuning: "D"G"C"F"A"D"
    
    Riff 1
    |----------------------------------------------------------|
    |----------------------------------------------------------|
    |----------------------------------------------------------|
    |--2------5/4-5--2------5/4-6--2------5/4-5--2------5/4-6--|
    |--2------5/4-5--2------5/4-6--2------5/4-5--2------5/4-6--|
    |--0-0000-3/2-3--0-0000-3/2-4--0-0000-3/2-3--0-0000-3/2-4--|
    
    Riff…
  • RIFF A:
    e:----------------------------------|
    b:----------------------------------|
    g:----------------------------------|
    D:----------------------------------|
    A:-2--------------4--------5--------|
    E:-0-000000000000-2-000000-3-000000-|…
  • Tune down 1/2 step
    
    PM  =  Palm Mute
    
    
    Riff 1       
    |--------------------------------|
    |--------------------------------|
    |--------------------------------|
    |---------5----------------------|
    |-2-------3-------5---2-------3--|
    |-0--0-0----------3---0--0-0--1--|
    PM…
  • RIFFS:
    
    #1
    E -------------------------------------------------------
    B -------------------------------------------------------
    G -------------------------------------------------------
    D -------------------------------------------------------
    A…
  • Turn down 1/2 step
    
    Riff 1        Play all this riff 2 times
    |----------------------------------------------|
    |------------Play this 2 times-----------------|
    |----------------------------------------------|
    |----------------------------------------------|
    |----------------------------------------------|
    |--000000000000000000000000-33221100-44332211--|
    PM…
  • INTRO:
    PLAY THIS 8X
    D| |-----------------------|------------------------| |
    A|o|-----------------------|------------------------|o|
    F| |-----------------------|------------------------| |
    C| |-----------------------|------------------------|…
  • RIFFS:
    
    #1
    E -------------------------------------------------------
    B -------------------------------------------------------
    G -------------------------------------------------------
    D -------------------------------------------------------
    A…
  • Tune down 1/2 step
    
    Intro       2 times     
    |-------------------||---------|
    |--Repeat 2 times---||---------|
    |-------------------||---------|
    |-------------------||---------|
    |--2-3-2-4-2-5-2-6--||--2-2-2--|
    |--0-1-0-2-0-3-0-4--||--0-0-0--|
    
    Riff…
  • NOTE: tune down your guitar a whole brutal step! (D,G,C,F,A,D)
          listen to the song to take the time
          listen to the song for the structure...
    
    Riff 1
    
    |-----------------------------------------------------------------------------|
    |-----------------------------------------------------------------------------|
    |-----------------------------------------------------------------------------|
    |-----------------------------------------------------------------------------|
    |--4-3--------------3-4---------------4---5-----------------4-3---------------|
    |--2-1-0-000-000-0--1-2-000000000000--2-0-3-0-000000000000--2-1-0-000-000-0---|
    
    
    
    Riff…
Наверх