Аккорды «Oleander»

Oleander
Oleander is a post-grunge band from Sacramento, California, USA. Its name is derived from the poisonous wildflower oleander, which line the highways of Northern California. In their nine years of activity, the band released four studio albums under various record labels. Their most successful effort, 1999's February Son, includes the hit single "Why I'm Here." Oleander went on official hiatus after the release and promotion of their fourth album, Joyride, in 2004. As of 2008, the group has reunited… Читать полностью... Oleander is a post-grunge band from Sacramento, California, USA. Its name is derived from the poisonous wildflower oleander, which line the highways of Northern California. In their nine years of activity, the band released four studio albums under various record labels. Their most successful effort, 1999's February Son, includes the hit single "Why I'm Here." Oleander went on official hiatus after the release and promotion of their fourth album, Joyride, in 2004. As of 2008, the group has reunited and is working on material for a new album. 1995-2004 In 1989, singer and guitarist Thomas Flowers met bassist Doug Eldridge; both of whom were employees of a Sacramento eatery. They played with several local bands together before meeting guitarist Ric Ivanisevich who joined them in a rehearsal. A drummer had also been established but left, leaving the position to Fred Nelson Jr, a co-worker of Flowers' and Eldridge's.[1] The quartet formed Oleander in 1995 and soon released an eponymous EP on the indie label Fine Records. This would be followed by a full-length album, Shrinking the Blob, in 1997. The band then gave their CD to a friend who worked at 98-Rock KRXQ and had it passed on to program director Curtiss Johnson. After gaining approval from the band, Johnson, who had previously aided the success of Gin Blossoms and The Refreshments, began playing two of their songs on air. The track "Down When I'm Loaded" gradually became a regional hit, and after opening for Sugar Ray, Oleander was approached by a representative of Republic Records. Soon after, they signed with Universal and began re-recording their 1997 studio album.[2] During this time, session drummer extraordinaire Jonathan Mover was recruited in the studio to record a new album and play live for the first leg of that tour. Nelson later joined the tour but subsequently left the band and was replaced with Scott Devours. In 1999, Oleander released their major label debut titled February Son. The album featured the hit singles "Why I'm Here" and "I Walk Alone." The former was even featured in the popular TV series Dawson's Creek. In promotion of the album, Oleander also participated in Woodstock '99 and their music was featured in American Pie and Scary Movie. The American Forces Radio Network in Asia and Europe also quickly jumped on February Son, which led to a quick following overseas. The band released their second official album, Unwind, in 2001. Their major label sophomore effort included the hit song "Are You There?". "Champion" became a theme about the sacrifice of firefighters during the September 11, 2001 attacks in New York City. The profits made off its single would be donated to aid the victims. During this time, the song "Bruised" was featured exclusively in American Pie 2. Oleander's music was also featured in the 2002 blockbuster Spider-Man. Unwind found considerable success but could not match the popularity of the band's previous album. It also gained both criticism and praise for its more varied musical style. In 2002, Oleander parted ways with Universal and moved to Sanctuary. Their song "Runaway Train" was featured in the Showtime film Bang Bang You're Dead in November that year. A music video was then shot and incorporated footage from the movie, which led to the Runaway Train EP.[3] By March 2003, Oleander released their third major label album, Joyride. Considered a return to the straight forward, hard rock approach, the album featured the marginally popular single "Hands Off the Wheel." Oleander traveled to Vicenza, Italy in March and headlined a special welcome home concert for the 173rd Airborne Brigade. In November, 2003, drummer Devours issued a statement announcing he was leaving Oleander to join the band Ima Robot. The decision was amicable and, in 2004, the band went into an unofficial hiatus. During that time, vocalist Thomas Flowers started collaborating with the band Black Summer Crush. He later told AlternativeAddiction.com, "We toured relentlessly, we had done anything that was ever asked of us and more by the record labels, and the payoff was diminishing. So we made a conscious decision to get back to normal life." [edit]2008-present On May 21, 2008, an official Oleander Myspace was created. On August 6 that year, it was reported that Black Summer Crush had parted ways with vocalist Thomas Flowers, immediately stirring rumor that Flowers might reunite with his former Oleander bandmates.[4] The official Myspace page also revealed a band lineup including drummer Steve Brown, and links to OleanderForums.net, a small, fan-run site claiming that the group was indeed reunited and working on a new album.[5] In April 2009, Facebook[6] and Twitter[7] accounts were created for Oleander, and new information was brought forth regarding the band's alleged reuniting; on AlternativeAddiction.com, Thomas Flowers revealed that by late 2008, he began writing new songs for Oleander and finally got the group together for rehearsal. "I just picked up a guitar and started thinking about the guys, and the places we’ve been and the people we’ve met, and the music that we left behind. There was just so much left that I wanted to say and that I wanted to write." Regarding the new material's style, he also elaborated that it will "retain all the elements of Oleander’s musical past" but also reflect the band "where [they] are today, both lyrically, melodically, and sonically." Flowers also expressed his desire to finish the record before touring despite various offers Скрыть...
Популярные аккорды Oleander:
алфавиту | просмотрам | случайно
  • VERSE
    
    G-------------------------------------------------------------------
    D-------------------------------------------------------------------
    A--4-4-4-4-4-4-4-4--------------------------------------------------
    E------------------4-4-4-4-4-4-4-6-7-7-7-7-7-7-7-7-6-6-6-6-6-4-6-4--
    
    
    PRE…
  • 1st Guitar (Intro) (Clean) Repeat 2x
    e--------------------------------------
    B--------------------------------------
    G--------------------------------------
    D-------7------10-------7------2-------
    A-----7--7---10--10---7--7---2--2------
    E----5-----8--------5------0-----------
    
    
    
    1st…
  • tune guitar low-high: Db, Ab, Db, Gb, Bb, Eb
    
    feedback then
    Drum beat intro. then--
    verse1
    A.                             Ab               G               A
                   even if you turn    sweep it all aside under the…
  • Intro riff
    e|----|-------------------------------------------------------------
    B|----|-------------------------------------------------------------
    G|----|7-8-10-8s7-7-8-10-8s7-7-8-10-8s7-10-8-10-8-7b1/2-------------
    D|----|-------------------------------------------------------------
    A|----|-------------------------------------------------------------
    E|----|-------------------------------------------------------------
    
    Verse…
  • Intro: (also used for the verses, but not with the exact same
    pattern,listen 
    to the cd to find out exactly)
    e---------------------------6--------------------------6----------------------------------------------------
    B----------------7----------------------------7----------------------------------------------7-------------
    G-----------8--------8-------------------8------8-------------------------------8------------------------
    D-----------------------------------------------------------------------------9--------9-------------------
    A---------------------------------------------------------------------7-------------------------------------
    E----4-----------------------------4-----------------------------------------------------------------------
    
    
    e------------------------------------------------
    B-----------------------------7------------------
    G----------------8-------------------------------
    D-----------9--------9---------------------------
    A----7-------------------------------------------
    E------------------------------------------------
    
    fill:…
  • Tuning: All Guitars Down One-Half Step 
    
    Chords used:
    
       Dsus2    A(11)/C#    Bm11    Asus2
    E---0----------0---------0--------0-----
    B---3----------2---------0--------0-----
    G---2----------2---------2--------2-----
    D---0----------0---------0--------2-----
    A---X----------4---------2--------0-----
    E---X----------X---------X--------X-----…
  • 1    2   F#m(3)  C#m(4)
    E|----------------------
    B|-4—---4---------------
    G|-X—---X-----2------6---
    D|-3--—-3-----4------6---
    A|-3—---4-----4------4---
    E|-X—---X-----2----------
    
    Intro
    1 | 2 | 1 | 2 |  
    
    Verse
    1…
  • Intro:
    
     guitar 1
     E|-------------------|
     B|-------------------|
     G|-------------------|
     D|-7-7-7-7-6-6-6-6---| repeat
     A|-7-7-7-7-4-4-4-4---|
     E|-5-5-5-5-4-4-4-4---|
    
     fill
     E|----------|
     B|----------|
     G|-6^(1/2)6-|…
  • Tuning:  Db Ab Db Gb Bb Eb
    
    Intro
    Guitar 1 (until :19, pull at :17)
    E---------------------------------------------------------
    B-5-3-5-3-5-3-5-3-5-3-5-3-5-3-5-3-5-3-5-3-5-5-3-5p^-------
    G---------------------------------------------------------
    D---------------------------------------------------------
    A---------------------------------------------------------
    D---------------------------------------------------------
    
    Guitar…
  • Tuning: low to high-- Db, Ab, Db, Gb, Bb, Eb
    intro riff 4 bars (clean tone)         (distortion kicks in)
    Eb------------------------------------]--------------------
    Bb------------------------------------]--------------------
    Gb-------------------12-12-12-11-14-14]--------------------…
  • Tuning: Dropped D down a half step (Db Ab Db Gb Bb Eb)
    
    Intro/Verses:
    eb ---------------------------------------------------------------------
    Bb ---------------------------------------------------------------------
    Gb ------------------5-5-5-5-5-5-5-5-------------------4-4-4-4-4-4-4-4--
    Db…
  • TUNED DOWN HALF STEP
    
    INTRO
    A-  B - C#m-D
    LISTEN TO CD FOR RUNDOWN—(D—C#m- B-A)
    
    GUITAR 2(USED DURING CHORUS AND INTRO)
    e------------------------------------------------10--10--10--7-----------------------------
    
    B------6--6—7/9----6--6-7/-9---6--6-7/9-------------------9
    
    VERSE
    INTRO…
  • Tuning: Down a half step (Eb Ab Db Gb Bb eb)
    
    Intro: (Guitar 1)
    eb --------------------------------------15-14-12-----
    Bb -15----15----15----15----15----15--------------15--
    Gb ----14----14----14----14----14----14---------------
    Db…
  • Tune your guitar down a half step and drop D
                                                                     
    First Intro part thing                                                          
    D#||--10--10--10--10--10--10--10--10--
    A#||--x---x---x---x---x---x---x---x---
    F#||--7---7---7---7---7---7---7---7---
    C#||----------------------------------
    G#||----------------------------------
    C#||----------------------------------
    
    Then…
  • Tuning: Down a half step (Eb, Ab, Db, Gb, Bb, eb)
    
    h=hammer on   p=pull off   x=scratch   ^=bend   ~=hold note   V=vibrato   /=slide
    
    Intro/Verse: you can figure out the EXACT number of strums
    eb -------5-5-5-5-5-x--5-5-5-5-5-x--5-5-5-5-5-x--5-5-5-5-5--
    Bb…
Наверх