Аккорды «On-The-Go»

On-The-Go
On-The-Go — российская инди-группа, образованная в 2007 году в Тольятти, Россия. С 2010 года участники группы живут в Москве. Успели записать альбом и несколько EP. Состав: Юра Макарычев — вокал Максим Макарычев — гитара, вокал Женя Меркушев — клавиши Дима Мидборн — бас Гриша Добрынин — барабаны Ссылки: http://www.facebook.com/onthegoband http://twitter.com/onthegoband http://vkontakte.ru/onthegoband http://soundcloud.com/onthegoband http://www.youtube.com/user/onthegoband… Читать полностью... On-The-Go — российская инди-группа, образованная в 2007 году в Тольятти, Россия. С 2010 года участники группы живут в Москве. Успели записать альбом и несколько EP. Состав: Юра Макарычев — вокал Максим Макарычев — гитара, вокал Женя Меркушев — клавиши Дима Мидборн — бас Гриша Добрынин — барабаны Ссылки: http://www.facebook.com/onthegoband http://twitter.com/onthegoband http://vkontakte.ru/onthegoband http://soundcloud.com/onthegoband http://www.youtube.com/user/onthegoband http://www.flickr.com/photos/onthegoband Скрыть...
Популярные аккорды On-The-Go:
алфавиту | просмотрам | случайно
  • Intro:
    1------------------------------------------------------------------------------------
    2------------------------------------------------------------------------------------
    3-----------------------------------------------------------------------------------
    4----10--------------------------------10----------------------------------------
    5--------12---10---12-------------------------12----10---12-----------------
    6----------------------------10----------------------------------------10-------
    
    Riff…
  • Intro:
    1------------------------------------------------------------------------------------
    2------------------------------------------------------------------------------------
    3-----------------------------------------------------------------------------------
    4--------------------------------------------------------------------------------
    5----------------7--7---10--10---7---5---7---5--5---7---------------------------------
    6---0----------------------------------------------------------------------------
    
    1------------------------------------------------------------------------------------
    2------------------------------------------------------------------------------------
    3-----------------------------------------------------------------------------------
    4--------------------------------------------------------------------------------
    5----------------7--7---10--10---7----------------------------------------------------
    6---0-----------------------------------------3---3---3-----5------------------------…
Наверх