Аккорды «One Minute Silence»

One Minute Silence
Команда трезво смотрит на процветающий мир альтернативной музыки, при этом добавляя свой "изюм" спидовой и техничной в плане исполнения музыки. В начале 1994 года ирландец Brian 'Yap' Barry встретился с гитаристом Крисом Игнатиу (Chris Ignatiou), чтобы создать группу Near Death Experience. Их группа сочетала в себе и энергетику Pantera, и наличие оркестра, объединенного с политическими текстами. Вскоре к ним присоединились басист Glen Diani, гибралтарец по национальности, который увидел объявление… Читать полностью... Команда трезво смотрит на процветающий мир альтернативной музыки, при этом добавляя свой "изюм" спидовой и техничной в плане исполнения музыки. В начале 1994 года ирландец Brian 'Yap' Barry встретился с гитаристом Крисом Игнатиу (Chris Ignatiou), чтобы создать группу Near Death Experience. Их группа сочетала в себе и энергетику Pantera, и наличие оркестра, объединенного с политическими текстами. Вскоре к ним присоединились басист Glen Diani, гибралтарец по национальности, который увидел объявление в Лондонском магазине музыки, и барабанщик Eddie Stratton, также увидевший объявление в музыкальной газете. Но это было только начало. Далее, в 1997 году группа начинает вплотную работать в основном на публике. Получив некоторое признание среди слушателей, они меняют своё название на One Minute Silence (Одна Минута Тишины). Это было очень странным названием для группы с такими жёсткими политическими текстами, но потом сам фронтмен группы дал объяснение названию: "С нами вы получаете одну минуту тишины и отдых от лжи", - говорит Barry. Далее на протяжении двух лет группа успешно гастролировала на разогреве у таких монстров, как Biohazard и Deftones, после чего они приступили к записи альбома Available in All Colors. В 1998 году он был успешно выпущен. Получив хорошие отзывы от критиков, они сделали тур по Америке и Англии, а после приступили к записи второго альбома Buy Now... Saved Later. Альбом получился более колоритным и запоминающимся, также выросло и звучание группы, заметно усилился звук гитары. Проведя череду успешных концертов, группа берёт передышку на год, а в 2002 году приступает к записи третьего альбома One Lie Fits All. В конце 2003 года он появляется на прилавках. Альбом получается с очень жёсткими политическими текстами, разбавленный грамотным гитарным звучанием, и, конечно же, неизменный голос вокалиста делает его чётким и обдуманным. Из группы прёт нереальная энергетика, заряжающая всё на своём пути. Однако в 2003 году группа отыграла последние концерты в поддержку нового альбома, после чего участники команды разошлись по другим проектам. Yap в данный момент состоит в группе Pink Punk. Скрыть...
Популярные аккорды One Minute Silence:
алфавиту | просмотрам | случайно
  • tuning: drop d.
    
    
    e----------------------------------------------------------------------------
    b----------------------------------------------------------------------------
    g----------------------------------------------------------------------------
    d----------------------------------------------------------------------------
    a----12-12-12/13-13/12-12-12-------------------------------------------------
    d--0-------------------------------------------------------------------------
    
    repeat…
  • Tuning: D A D G B e
    
    Intro (clean)
    
    I--------------------------------------------------------------------|
    I--------------------------------------------------------------------|
    I--------------------------------------------------------------------|
    I----5---(5br)--5---(5br)------6---5---(5br)-------------------------|
    I--------------------------------------------------------------------|
    I--------5----------5--------5---5---5---5---------------------------|
    
    
    Verse…
  • Intro
    e|-------------------------------|
    B|-------------------------------|
    G|-------------------------------|
    D|------3-------------3----------|
    A|-1-3h4--0--4---1-3h4--0--4---3-|
    E|---------------------------4---|
    
    Chorus
    e|----------------------------------------------------------|
    B|----------------------------------------------------------|
    G|----------------------------------------------------------|
    D|7/8-8-8-8-2-2-2-2/3-3--3--6--7/8-8-8-8-2-2-2-2/3-3--3-1-1-|
    A|7/8-8-8-8-2-2-2-2/3-3--3--6--7/8-8-8-8-2-2-2-2/3-3--3-1-1-|
    E|5/6-6-6-6-0-0-0-0/1-1--1--4--5/6-6-6-6-0-0-0-0/1-1--1-x-x-|
    
    (To…
  • Tuning: Drop D
    
    Notes:
    
    |----------------------|
    |----------------------|
    |----------------------|
    |-32oo-32oo-3h2------|
    |-32oo-32oo-3h2------|  (x3)
    |-32oo-32oo-3h2------|
    
    This is the main heavy riff, where the second…
  • tuning droped one on 1st string DADGBE
    
    Intro
    
    E----------------------------------------------------------------------|
    B----------------------------------------------------------------------|
    G----------------------------------------------------------------------|
    D----------------------------------------------------------------------|
    A----------------------------------------------------------------------|
    D--2-2-2-3-2-2-2-0-0-0-0--2-2-2-3-2-2-2-0-0-0-0--2-2-2-3-2-2-2-0-0-0-0-|
    
    Main…
  • Tuning: Dropped D
    
    
    G|--------0-0--------------0-0--------------0-0--------------0-0-5h7-|
    D|-0--7-0----/8-7---0--7-0-----5h7---0--7-0----/8-7---0--7-0---------|
    A|-------------------------------------------------------------------|
    D|-0----0-5-5-------0----0-5-5-------0----0-5-5-------0----0-5-5-----|…
  • played with a 6 string guitar with very heavy distortion and a metal pick
    
    Intro:
    e|------------------------------------------------|
    B|------------------------------------------------|
    G|------------------------------------------------|
    D|------------------------------------------------|
    A|------1----------1----------1----------1--------|
    E|-0-2-0------0-2-0------0-2-0------0-2-0-0-2-0-3-|
    
    Verse:
    e|----------------|
    B|----------------|
    G|----------------|
    D|-0-x-x-3-x-x-x-x|
    A|-0-4-0-1-4-5-x-x|
    E|-0-2-0-x-2-3-x-x|
    
    Chorus:
    e|-----Im…
  • Drop D        H=hammer on
                    INTRO
    G|----------------------------------------|
    D|----------------------------------------|
    A|----------------------------------------|
    D|-0h1-1--0h1-1--0h1----0h1-1--0h1-1--0h1-|…
  • INTRO
    
    G-----------------------------------------
    D-----------------------------------------
    A-----------------------------------------
    D-0-0--0-0--0-0--0-0--0-0--0-0--ect.
    
    Chorus , start to play after first BRAIN SPILLER!…
  • tuning: drop d
    
    intro:
    G------------|
    D0--3h5---3--|
    A-------3---3|
    D------------|
    
    intro part b:
    G -----------|------------|
    D -----------|------------|
    A 5-5-3-5-5-3|-5-3-5-3-5-3|
    D -----------|------------|
    
    main riff
    G…
  • DROP D TUNING
    h=hammer on  p=pull off
    BEGINING/CHORUS
    G|---------------------|-------------3h4-----------|
    D|---------------------|---------3h5---------------|
    A|-----1h2-------------|-----1h2-------------------|
    D|-3h5-----0h3-5---3p0-|-3h5--------------3h5------|
    
    VERSE
    G|-------------------------------------------------|
    D|-------------------------------------------------|
    A|-------------------------------------------------|
    D|-3-4-5---3-4-5---3-4-5---3-4-5---5-4-3-----------|
    
    CRUCIAL…
Наверх