Аккорды «Onesidezero»

Onesidezero
Onesidezero - группа из Лос-Анджелеса, состоящая из 5 человек. Их стиль исполнения некоторые называют heavy melodic rock. Их песни часто с тёмным смыслом, глубокой лирикой и медленной басс-линией. Сформированна она была в 1997 году и начала своё творчество с "Maverick Records". Свой дебютный альбом "Is This Room Getting Smaller?"реализовали 20 ноября 2001 года, после чего была в трёхгодичном туре вместе с Incubus, 311, Static-X, Soulfly, SOiL, а также ездили с Linkin Park на пердставление live-выступлений.… Читать полностью... Onesidezero - группа из Лос-Анджелеса, состоящая из 5 человек. Их стиль исполнения некоторые называют heavy melodic rock. Их песни часто с тёмным смыслом, глубокой лирикой и медленной басс-линией. Сформированна она была в 1997 году и начала своё творчество с "Maverick Records". Свой дебютный альбом "Is This Room Getting Smaller?"реализовали 20 ноября 2001 года, после чего была в трёхгодичном туре вместе с Incubus, 311, Static-X, Soulfly, SOiL, а также ездили с Linkin Park на пердставление live-выступлений. Синглами их первого альбома были "Instead Laugh" и "New World Order". В 2003 году группа расформировывается на различные проекты. Один из таких, но наиболее известных проектов стал Abloom (ранее назывался Mothra), сформированный Ясаном Рэдфордом и Левоном Салтэйнианом - вокалистом и гитаристом. Abloom играли классический рок, их песниможно найти на MySpace ("Cover Up", "After That Quiet", "January 2nd", "What You Came For", "Shadows" и "Mama Don't Cry"). В конце 2004-го Onesidezero решают снова объединиться и начать работу над новым материалом. Пока они были в турах в 2005 и 2006 годах, они написали несколько песен и с Ульрихом Уайлдом (Taproot, Static-X) записывают демо-альбом. 8 ноября 2006 года OneSideZero заключают контракт с "Corporate Punishment Records", а спустя полгода, 5 июня 2007-го, выпускают свой альбом Onesidezero. Состав группы: Jasan Radford (Ясан Рэдфорд) – вокал; Brett Kane (Брэтт Кейн) – гитара, бэк-вокал; Cristian Hernandez (Кристиан Хернандэз) – басс, бэк-вокал; Rob Basile (Роб Бэйсил) – ударные; Colin Crow (Колин Кроу) - гитара. Бывшие участники: Levon Sultanian (Левон Салтэйниан) – гитара (1997–2003 гг., 2004-2007 гг.) Скрыть...

Теги:

Популярные аккорды Onesidezero:
алфавиту | просмотрам | случайно
  • Guitar 1 
    E------------------------------------------------------------------------ 
    B------------------------------------------------------------------------
    G------------------------------------------------------------------------
    D------------------------------------------------------------------------
    A------4p0-----4p0------4p0------4p0------4p0-------4p0------4p0-----4p0-…
  • Intro(delay, slightly palm muted)
    e|----------------------------------------------|
    b|----------------------------------------------|
    g|----------------------------------------------|
    d|----------------------------------------------|
    a|-------5---5-------------4-4-*5-*5------------|
    D|-4-4-4---4---6-6-6-6-7-7----------------------|
    
    Verse
    e|----------------------------------------------|
    b|----------------------------------------------|
    g|----------------------------------------------|
    d|----------*4----------------------------------|
    a|-*4-*5-*4----*5-*4----------------------------|
    D|----------------------------------------------|
    
    Prechorus
    e|----------------------------------------------|
    b|----------------------------------------------|
    g|----------------------------------------------|
    d|----------------------------------------------|
    a|-4-4-4-4-4-4-5-5-5-5-5-5----------------------|
    D|-4-4-4-4-4-4-0-0-0-0-0-0----------------------|…
  • Verse
    e|---------------------------------|
    b|---------------------------------|
    g|---------------------------------|
    d|-2h4-4-4-------------------------|
    a|---------4---4b------------------|
    D|-----------4---------------------|
    
    Prechorus-…
  • Verse
    e|-----------------------------------------|
    b|-----------------------------------------|
    g|-----------------------------------------|
    d|-0-------3-----3-------2-------0---------|
    a|-1-1-1-1-1-1-1-1-1-1-1-1-1-1-1-1---------|
    D|-----------------------------------------|…
  • Drop D tuning
    
    tuning: D-A-D-G-B-e    
    
    Key: ()= let note ring
         * = harmonic    
         b = bend note
    
    INTRO - strumming not shown
    _____________________
    e|------------------| 
    B|------------------|
    G|------------------|
    D|-6-6-xxxx-(0)-----|…
  • 1st gtr- 
      E-----10-------------10-------------10--------------------------- 
      B----------11-10----------11-10----------11-10-----11---11-10---- 
      G-7-7----7-------------------------------------------------------  x6…
  • (drop D Tuning) 
    
                                 
    E--------------------------------------------------------- 
    B--------------------------------------------------------- 
    G---------------------------------------------------------…
  • Verse- Guitar 1(for best effect play close to the bridge)
    e|--------------------------------------------------------|
    b|--------------------------------------------------------|
    g|--------------------------------------------------------|
    d|--------------------------------------------------------|
    a|--------------------------------------------------------|
    D|-9-9-9-9-9-9-9-0-0-0-0-0-0-0-5-5-5-5-5-5-5-4-2-0--------|
    
    Verse-…
  • Standard tuning. 
    
    Intro guitar 1:
    e--7-------7-------7----------------------------------------|
    B----5-5-----5-5-----5-5---5-7-5-7-5-7-5--------------------|
    G-----------------------------------------------------------|
    D-----------------------------------------------------------|
    A-----------------------------------------------------------|
    E-----------------------------------------------------------|
    
    Intro…
  • Intro (ALL HARMONICS THESE ARE WHERE YOUR FINGERS GO)
    e|---------------------------------|
    b|-12-------------------12---------|
    g|------------------------------12-|
    d|-----------12---12---------12----|
    a|---------9----9----9-------------|
    D|----9--------------------9-------|
    
    Verse-…
  • Intro/Bridge
    e|--------------------------------|
    b|--------------------------------|
    g|--------------------------------|
    d|-0-0-2-2s3-0-2------------------|
    a|-0-0-2-2s3-0-2------------------|
    D|-0-0-2-2s3-0-2------------------|
    
    Verse
    e|-------12----------12----------12-17-12----12---------|
    b|----13----------13----------13----------13----13-12---|
    g|-14-------14-13-------13-14---------------------------|
    d|------------------------------------------------------|
    a|------------------------------------------------------|
    D|------------------------------------------------------|
    
    Chorus…
  • Verse               | Riff after intro
    e|-------3----------|-------------------------------|
    b|-3-0-0-3----------|-------------------------------|
    g|-2-5-2-0----------|-------------------------------|
    d|-0-4-5-0----------|-------------------------------|
    a|-0-3-0------------|-0-0-0-10-0-0-9-0-0-10-0-0-2-3-|
    D|-0----------------|-0-0-0-10-0-0-9-0-0-10-0-0-2-3-|
    
    Between…
  • Intro- Guitar 1
    e|------------------------------------------|
    b|------------------------------------------|
    g|------------------------------------------|
    d|-------------------7-9h10-10-9h10p9-7-9---|
    a|-9-9-9h10p9-7-9-10---------------------10-|
    D|-0-0--------------------------------------|
    
    At…
Наверх