Аккорды «Oomph!»

Oomph!
Постоянное движение вперед, полная самоотдача и великолепное звучание — всё это свойственно Oomph!. В течение 20-ти лет музыкальные произведения этого трио из Нижней Саксонии были сформированы их духом первооткрывательства. Критики, фэны и коллеги единодушно говорят, что эти три парня занимают место среди «самых революционных фигур немецкой музыкальной сцены». Rammstein открыто соглашаются, что они очень сильно вдохновлены данной командой. Их песни можно описать так: рифы стаккато и ритм военного… Читать полностью... Постоянное движение вперед, полная самоотдача и великолепное звучание — всё это свойственно Oomph!. В течение 20-ти лет музыкальные произведения этого трио из Нижней Саксонии были сформированы их духом первооткрывательства. Критики, фэны и коллеги единодушно говорят, что эти три парня занимают место среди «самых революционных фигур немецкой музыкальной сцены». Rammstein открыто соглашаются, что они очень сильно вдохновлены данной командой. Их песни можно описать так: рифы стаккато и ритм военного марша, что стало крайне популярно в конце 1990-х. Oomph! знают, как объединить электронику с роком: своего рода одушевлённая машина музыки с мощными и совершенно разными аранжировками. Группа была основана в 1989-м, в городе Вольфсбург, когда Dero (вокал, барабаны), Crap (гитара, клавишные) и Flux (гитара, сэмплы) нашли свою музыкальную нишу. Их первый альбом, под одноимённым названием OOMPH!, был выпущен в 1992-м году. Для их последующих релизов Sperm (1993) и Defekt (1995), музыкальная индустрия пыталась найти новые определения, которые сводились к электро-металу, индастриалу, дэнс-металу, хотя ни один из них не подходил к тому, что делала группа. Начиная с успеха альбома Unrein (1996), ведущие музыкальные лейблы начали интересоваться этой необычной комбинацией стилей. Unrein (1998) стал настоящим клубным хитом, благодаря песне Gekreuzigt, как и альбом Plastik, изданный в 1999-м (включающий хитовые синглы Das Weisse Licht и Fieber, исполненную совместно с Nina Hagen), который покорил вершины немецких чартов, и благодаря которому группа Skunk Anansie взяла Oomph! с собой в турне по Европе. Седьмой релиз группы, альбом Ego, изданный в 2001-м году, стал пиком карьеры музыкантов: альбом вошёл в двадцатку лучших в Германии, после чего последовал большой тур по Европе вместе с финскими love-металлистами HIM. Реакция аудитории на концертах и на форуме официального сайта группы — доказательство огромной популярности Oomph!. В 2002-м они отыграли на фестивалях Ozzfest, With Full Force and Mera Luna. В то время как другие группы пытаются выжить в тени успеха Oomph!, сами ребята идут новым путём. «Идя по шагам других, вы не будете оставлять следов!» Согласно этому кредо, они определили для себя изменения и в 2003-м. В конце прошлого года Oomph! записываются на лэйбле GUN Records. Вот как участники группы объясняют свой выбор: «Мы искали сильного и компетентного партнера, который понимает музыку Oomph!, с хорошим каналом распространения музыки, и которому за прошлые годы удалось показать хорошие результаты по работе в этом музыкальном направлении в Европе и Германии. В Gun Records интересовались нами с 1996-го года и поэтому знают Oomph! как свои пять пальцев!» Если говорить о предпоследнем альбоме группы, то стоит упомянуть композицию Dein Feuer. «Песня показывает одну из сторон Oomph!, но это, конечно, не единственная наша сторона», — говорит Flux об этой вещи. «Это очень сложный и меняющийся материал: грубый, мелодичный, атмосферный, и с отличительной лирикой Деро и уникальным пением, немного больше рока и гранжа, но с присутствием нежных и мягких моментов.» Альбом Wahrheit Oder Pflicht продолжает курс изобретения нового звучания и новизны. В 2006 году выпущен альбом GlaubeLiebeTod, двойной бест оф Delikatessen, ряд синглов, а 20 июля 2007 года выпущен первый в истории группы концертный DVD «Rohstoff». В 2008 году вышел альбом Monster В феврале 2009 года вышел сингл Sandmann 2009 год — юбилейный год. OOMPH! — 20 лет. 26 февраля 2010 года Oomph! выпустили сборник лучших песен на английском языке — Truth Or Dare. 18 мая 2012 года у Oomph! вышел альбом под названием Des Wahnsinns fette Beute Скрыть...
Популярные аккорды Oomph!:
алфавиту | просмотрам | случайно
  • INTRO:
    e|----------------------------------|
    B|----------------------------------|
    G|-----5-----5-----5-----7-----3----|
    D|---5-----5-----5-----5-----5------|x8
    A|-3-----3-----3-----3-----3-----3--|
    E|----------------------------------|
    
    PRE-CHORUS
    guitar…
  • Verse:
    E|-------------------------------------------------------------------------------|
    B|-------------------------------------------------------------------------------|
    G|-------------------------------------------------------------------------------|
    D|-------------------------------------------------------------------------------|
    A|-4-4-4-4-4-4-4-4-4-4-4-4-4-6-6-7-7---------------------------------------------|x7
    E|-----------------------------------5-5-5-5-5-5-5-5-5-5-5-5-5-5-5-5-5-5-4-4-2-2-|
    
    Chorus:…
  • Intro
    
    e|----------------------------------------------------------------|
    B|----------------------------------------------------------------|
    G|----------------------------------------------------------------|
    D|----------------------------------------------------------------|
    A|----------------------------------------------------------------|
    D|3---3---3---3---0---0---0---0---2---2---2---2---0---0---0---0---|
    
    e|----------------------------------------------------------------|
    B|----------------------------------------------------------------|
    G|----------------------------------------------------------------|
    D|----------------------------------------------------------------|
    A|----------------------------------------------------------------|
    D|3---3---3---3---0---0---0---0---2---2---2---2---0---0---0---0---|
    
    e|----------------------------------------------------------------|
    B|----------------------------------------------------------------|
    G|----------------------------------------------------------------|
    D|7-7-7-7-7-7-9-9-2-2-2-2-2-2-5-5-3-3-3-3-3-3-2-2-0-0-0-0-0-0-2-2-|
    A|7-7-7-7-7-7-9-9-2-2-2-2-2-2-5-5-3-3-3-3-3-3-2-2-0-0-0-0-0-0-2-2-|
    D|7-7-7-7-7-7-9-9-2-2-2-2-2-2-5-5-3-3-3-3-3-3-2-2-0-0-0-0-0-0-2-2-|
    
    e|----------------------------------------------------------------|
    B|----------------------------------------------------------------|
    G|----------------------------------------------------------------|
    D|7-7-7-7-7-7-9-9-2-2-2-2-2-2-5-5-3-3-3-3-3-3-2-2-0-0-0-0-0-0-2-2-|
    A|7-7-7-7-7-7-9-9-2-2-2-2-2-2-5-5-3-3-3-3-3-3-2-2-0-0-0-0-0-0-2-2-|
    D|7-7-7-7-7-7-9-9-2-2-2-2-2-2-5-5-3-3-3-3-3-3-2-2-0-0-0-0-0-0-2-2-|
    
    Verse
    
    e|----------------------------------------------------------------|
    B|----------------------------------------------------------------|
    G|----------------------------------------------------------------|
    D|----------------------------------------------------------------|
    A|----------------------------------------------------------------|
    D|7-7-7-7-7-7-7-7-2-2-2-2-2-2-2-2-3-3-3-3-3-3-3-3-0-0-0-0-0-0-0-0-|
    
    e|----------------------------------------------------------------|
    B|----------------------------------------------------------------|
    G|----------------------------------------------------------------|
    D|----------------------------------------------------------------|
    A|----------------------------------------------------------------|
    D|7-7-7-7-7-7-7-7-2-2-2-2-2-2-2-2-3-3-3-3-3-3-3-3-0-0-0-0-0-0-0-0-|
    
    e|----------------------------------------------------------------|
    B|----------------------------------------------------------------|
    G|----------------------------------------------------------------|
    D|----------------------------------------------------------------|
    A|----------------------------------------------------------------|
    D|7-7-7-7-7-7-7-7-2-2-2-2-2-2-2-2-3-3-3-3-3-3-3-3-0-0-0-0-0-0-0-0-|
    
    e|----------------------------------------------------------------|
    B|----------------------------------------------------------------|
    G|----------------------------------------------------------------|
    D|----------------------------------------------------------------|
    A|----------------------------------------------------------------|
    D|7-7-7-7-7-7-7-7-2-2-2-2-2-2-2-2-3-3-3-3-3-3-3-3-0-0-0-0-0-0-0-0-|
    
    e|----------------------------------------------------------------|
    B|----------------------------------------------------------------|
    G|----------------------------------------------------------------|
    D|----------------------------------------------------------------|
    A|----------------------------------------------------------------|
    D|3---3---3---3---0---0---0---0---2---2---2---2---0---0---0---0---|
    
    e|----------------------------------------------------------------|
    B|----------------------------------------------------------------|
    G|----------------------------------------------------------------|
    D|----------------------------------------------------------------|
    A|----------------------------------------------------------------|
    D|3---3---3---3---0---0---0---0---2---2---2---2---0---0---0---0---|
    
    Chorus
    
    e|----------------------------------------------------------------|
    B|----------------------------------------------------------------|
    G|----------------------------------------------------------------|
    D|7-7-7-7-7-7-9-9-2-2-2-2-2-2-5-5-3-3-3-3-3-3-2-2-0-0-0-0-0-0-2-2-|
    A|7-7-7-7-7-7-9-9-2-2-2-2-2-2-5-5-3-3-3-3-3-3-2-2-0-0-0-0-0-0-2-2-|
    D|7-7-7-7-7-7-9-9-2-2-2-2-2-2-5-5-3-3-3-3-3-3-2-2-0-0-0-0-0-0-2-2-|
    
    e|----------------------------------------------------------------|
    B|----------------------------------------------------------------|
    G|----------------------------------------------------------------|
    D|7-7-7-7-7-7-9-9-2-2-2-2-2-2-5-5-3-3-3-3-3-3-2-2-0-0-0-0-0-0-2-2-|
    A|7-7-7-7-7-7-9-9-2-2-2-2-2-2-5-5-3-3-3-3-3-3-2-2-0-0-0-0-0-0-2-2-|
    D|7-7-7-7-7-7-9-9-2-2-2-2-2-2-5-5-3-3-3-3-3-3-2-2-0-0-0-0-0-0-2-2-|
    
    e|----------------------------------------------------------------|
    B|----------------------------------------------------------------|
    G|----------------------------------------------------------------|
    D|7-7-7-7-7-7-9-9-2-2-2-2-2-2-5-5-3-3-3-3-3-3-2-2-0-0-0-0-0-0-2-2-|
    A|7-7-7-7-7-7-9-9-2-2-2-2-2-2-5-5-3-3-3-3-3-3-2-2-0-0-0-0-0-0-2-2-|
    D|7-7-7-7-7-7-9-9-2-2-2-2-2-2-5-5-3-3-3-3-3-3-2-2-0-0-0-0-0-0-2-2-|
    
    e|----------------------------------------------------------------|
    B|----------------------------------------------------------------|
    G|----------------------------------------------------------------|
    D|7-7-7-7-7-7-9-9-2-2-2-2-2-2-5-5-3-3-3-3-3-3-2-2-0-0-0-0-0-0-2-2-|
    A|7-7-7-7-7-7-9-9-2-2-2-2-2-2-5-5-3-3-3-3-3-3-2-2-0-0-0-0-0-0-2-2-|
    D|7-7-7-7-7-7-9-9-2-2-2-2-2-2-5-5-3-3-3-3-3-3-2-2-0-0-0-0-0-0-2-2-|
    
    Verse
    
    e|----------------------------------------------------------------|
    B|----------------------------------------------------------------|
    G|----------------------------------------------------------------|
    D|----------------------------------------------------------------|
    A|----------------------------------------------------------------|
    D|7-7-7-7-7-7-7-7-2-2-2-2-2-2-2-2-3-3-3-3-3-3-3-3-0-0-0-0-0-0-0-0-|
    
    e|----------------------------------------------------------------|
    B|----------------------------------------------------------------|
    G|----------------------------------------------------------------|
    D|----------------------------------------------------------------|
    A|----------------------------------------------------------------|
    D|7-7-7-7-7-7-7-7-2-2-2-2-2-2-2-2-3-3-3-3-3-3-3-3-0-0-0-0-0-0-0-0-|
    
    e|----------------------------------------------------------------|
    B|----------------------------------------------------------------|
    G|----------------------------------------------------------------|
    D|----------------------------------------------------------------|
    A|----------------------------------------------------------------|
    D|7-7-7-7-7-7-7-7-2-2-2-2-2-2-2-2-3-3-3-3-3-3-3-3-0-0-0-0-0-0-0-0-|
    
    e|----------------------------------------------------------------|
    B|----------------------------------------------------------------|
    G|----------------------------------------------------------------|
    D|----------------------------------------------------------------|
    A|----------------------------------------------------------------|
    D|7-7-7-7-7-7-7-7-2-2-2-2-2-2-2-2-3-3-3-3-3-3-3-3-0-0-0-0-0-0-0-0-|
    
    e|----------------------------------------------------------------|
    B|----------------------------------------------------------------|
    G|----------------------------------------------------------------|
    D|----------------------------------------------------------------|
    A|----------------------------------------------------------------|
    D|3---3---3---3---0---0---0---0---2---2---2---2---0---0---0---0---|
    
    e|----------------------------------------------------------------|
    B|----------------------------------------------------------------|
    G|----------------------------------------------------------------|
    D|----------------------------------------------------------------|
    A|----------------------------------------------------------------|
    D|3---3---3---3---0---0---0---0---2---2---2---2---0---0---0---0---|
    
    Chorus
    
    e|----------------------------------------------------------------|
    B|----------------------------------------------------------------|
    G|----------------------------------------------------------------|
    D|7-7-7-7-7-7-9-9-2-2-2-2-2-2-5-5-3-3-3-3-3-3-2-2-0-0-0-0-0-0-2-2-|
    A|7-7-7-7-7-7-9-9-2-2-2-2-2-2-5-5-3-3-3-3-3-3-2-2-0-0-0-0-0-0-2-2-|
    D|7-7-7-7-7-7-9-9-2-2-2-2-2-2-5-5-3-3-3-3-3-3-2-2-0-0-0-0-0-0-2-2-|
    
    e|----------------------------------------------------------------|
    B|----------------------------------------------------------------|
    G|----------------------------------------------------------------|
    D|7-7-7-7-7-7-9-9-2-2-2-2-2-2-5-5-3-3-3-3-3-3-2-2-0-0-0-0-0-0-2-2-|
    A|7-7-7-7-7-7-9-9-2-2-2-2-2-2-5-5-3-3-3-3-3-3-2-2-0-0-0-0-0-0-2-2-|
    D|7-7-7-7-7-7-9-9-2-2-2-2-2-2-5-5-3-3-3-3-3-3-2-2-0-0-0-0-0-0-2-2-|
    
    e|----------------------------------------------------------------|
    B|----------------------------------------------------------------|
    G|----------------------------------------------------------------|
    D|7-7-7-7-7-7-9-9-2-2-2-2-2-2-5-5-3-3-3-3-3-3-2-2-0-0-0-0-0-0-2-2-|
    A|7-7-7-7-7-7-9-9-2-2-2-2-2-2-5-5-3-3-3-3-3-3-2-2-0-0-0-0-0-0-2-2-|
    D|7-7-7-7-7-7-9-9-2-2-2-2-2-2-5-5-3-3-3-3-3-3-2-2-0-0-0-0-0-0-2-2-|
    
    e|----------------------------------------------------------------|
    B|----------------------------------------------------------------|
    G|----------------------------------------------------------------|
    D|7-7-7-7-7-7-9-9-2-2-2-2-2-2-5-5-3-3-3-3-3-3-2-2-0-0-0-0-0-0-2-2-|
    A|7-7-7-7-7-7-9-9-2-2-2-2-2-2-5-5-3-3-3-3-3-3-2-2-0-0-0-0-0-0-2-2-|
    D|7-7-7-7-7-7-9-9-2-2-2-2-2-2-5-5-3-3-3-3-3-3-2-2-0-0-0-0-0-0-2-2-|
    
    Bridge
    
    e|----------------------------------------------------------------|
    B|----------------------------------------------------------------|
    G|----------------------------------------------------------------|
    D|7---------------------------------------------------------------|
    A|7---------------------------------------------------------------|
    D|7---------------------------------------------------------------|
    
    e|----------------------------------------------------------------|
    B|----------------------------------------------------------------|
    G|----------------------------------------------------------------|
    D|7---------------------------------------------------------------|
    A|7---------------------------------------------------------------|
    D|7---------------------------------------------------------------|
    
    e|----------------------------------------------------------------|
    B|----------------------------------------------------------------|
    G|----------------------------------------------------------------|
    D|X---------------------------------------------------------------|
    A|X---------------------------------------------------------------|
    D|X---------------------------------------------------------------|
    
    e|----------------------------------------------------------------|
    B|----------------------------------------------------------------|
    G|----------------------------------------------------------------|
    D|X---------------------------------------------------------------|
    A|X---------------------------------------------------------------|
    D|X---------------------------------------------------------------|
    
    Chorus
    
    e|----------------------------------------------------------------|
    B|----------------------------------------------------------------|
    G|----------------------------------------------------------------|
    D|7-7-7-7-7-7-9-9-2-2-2-2-2-2-5-5-3-3-3-3-3-3-2-2-0-0-0-0-0-0-2-2-|
    A|7-7-7-7-7-7-9-9-2-2-2-2-2-2-5-5-3-3-3-3-3-3-2-2-0-0-0-0-0-0-2-2-|
    D|7-7-7-7-7-7-9-9-2-2-2-2-2-2-5-5-3-3-3-3-3-3-2-2-0-0-0-0-0-0-2-2-|
    
    e|----------------------------------------------------------------|
    B|----------------------------------------------------------------|
    G|----------------------------------------------------------------|
    D|7-7-7-7-7-7-9-9-2-2-2-2-2-2-5-5-3-3-3-3-3-3-2-2-0-0-0-0-0-0-2-2-|
    A|7-7-7-7-7-7-9-9-2-2-2-2-2-2-5-5-3-3-3-3-3-3-2-2-0-0-0-0-0-0-2-2-|
    D|7-7-7-7-7-7-9-9-2-2-2-2-2-2-5-5-3-3-3-3-3-3-2-2-0-0-0-0-0-0-2-2-|
    
    e|----------------------------------------------------------------|
    B|----------------------------------------------------------------|
    G|----------------------------------------------------------------|
    D|7-7-7-7-7-7-9-9-2-2-2-2-2-2-5-5-3-3-3-3-3-3-2-2-0-0-0-0-0-0-2-2-|
    A|7-7-7-7-7-7-9-9-2-2-2-2-2-2-5-5-3-3-3-3-3-3-2-2-0-0-0-0-0-0-2-2-|
    D|7-7-7-7-7-7-9-9-2-2-2-2-2-2-5-5-3-3-3-3-3-3-2-2-0-0-0-0-0-0-2-2-|
    
    e|----------------------------------------------------------------|
    B|----------------------------------------------------------------|
    G|----------------------------------------------------------------|
    D|7-7-7-7-7-7-9-9-2-2-2-2-2-2-5-5-3-3-3-3-3-3-2-2-0-0-0-0-0-0-2-2-|
    A|7-7-7-7-7-7-9-9-2-2-2-2-2-2-5-5-3-3-3-3-3-3-2-2-0-0-0-0-0-0-2-2-|
    D|7-7-7-7-7-7-9-9-2-2-2-2-2-2-5-5-3-3-3-3-3-3-2-2-0-0-0-0-0-0-2-2-|
    
    e|----------------------------------------------------------------|
    B|----------------------------------------------------------------|
    G|----------------------------------------------------------------|
    D|7-7-7-7-7-7-9-9-2-2-2-2-2-2-5-5-3-3-3-3-3-3-2-2-0-0-0-0-0-0-2-2-|
    A|7-7-7-7-7-7-9-9-2-2-2-2-2-2-5-5-3-3-3-3-3-3-2-2-0-0-0-0-0-0-2-2-|
    D|7-7-7-7-7-7-9-9-2-2-2-2-2-2-5-5-3-3-3-3-3-3-2-2-0-0-0-0-0-0-2-2-|
    
    e|----------------------------------------------------------------|
    B|----------------------------------------------------------------|
    G|----------------------------------------------------------------|
    D|7-7-7-7-7-7-9-9-2-2-2-2-2-2-5-5-3-3-3-3-3-3-2-2-0-0-0-0-0-0-2-2-|
    A|7-7-7-7-7-7-9-9-2-2-2-2-2-2-5-5-3-3-3-3-3-3-2-2-0-0-0-0-0-0-2-2-|
    D|7-7-7-7-7-7-9-9-2-2-2-2-2-2-5-5-3-3-3-3-3-3-2-2-0-0-0-0-0-0-2-2-|
    
    e|----------------------------------------------------------------|
    B|----------------------------------------------------------------|
    G|----------------------------------------------------------------|
    D|7-7-7-7-7-7-9-9-2-2-2-2-2-2-5-5-3-3-3-3-3-3-2-2-0-0-0-0-0-0-2-2-|
    A|7-7-7-7-7-7-9-9-2-2-2-2-2-2-5-5-3-3-3-3-3-3-2-2-0-0-0-0-0-0-2-2-|
    D|7-7-7-7-7-7-9-9-2-2-2-2-2-2-5-5-3-3-3-3-3-3-2-2-0-0-0-0-0-0-2-2-|
    
    e|----------------------------------------------------------------|
    B|----------------------------------------------------------------|
    G|----------------------------------------------------------------|
    D|7-7-7-7-7-7-9-9-2-2-2-2-2-2-5-5-3-3-3-3-3-3-2-2-0-0-0-0-0-0-2-2-|
    A|7-7-7-7-7-7-9-9-2-2-2-2-2-2-5-5-3-3-3-3-3-3-2-2-0-0-0-0-0-0-2-2-|
    D|7-7-7-7-7-7-9-9-2-2-2-2-2-2-5-5-3-3-3-3-3-3-2-2-0-0-0-0-0-0-2-2-|
    
    Coda
    
    e|----------------------------------------------------------------|
    B|----------------------------------------------------------------|
    G|----------------------------------------------------------------|
    D|----------------------------------------------------------------|
    A|----------------------------------------------------------------|
    D|3---3---3---3---0---0---0---0---2---2---2---2---0---0---0---0---|
    
    e|----------------------------------------------------------------|
    B|----------------------------------------------------------------|
    G|----------------------------------------------------------------|
    D|----------------------------------------------------------------|
    A|----------------------------------------------------------------|
    D|3---3---3---3---0---0---0---0---2---2---2---2---0---0---0---0---|…
  • verse:
    d|-12-11-----12-11-----12-11-----12-11-------------------------------------|
    A|-------------------------------------------------------------------------|
    F|-------------------------------------------------------------------------|
    C|-------------------------------------------------------------------------|
    G|-------------------------------------------------------------------------|
    C|-------------------------------------------------------------------------|
    
    chorus…
  • Drop A
    
    
    Intro/Chorus
    B|----------------------------------------------------------------------|
    F|----------------------------------------------------------------------|
    D|--------------------------------------------------7-7-7-7-7-7-7-7-----|
    A|--2-2-2-2-2-2-2-2-3-3-3-3-3-3-3-3-5-5-5-5-5-5-5-5-7-7-7-7-7-7-7-7-----|x2
    E|--2-2-2-2-2-2-2-2-3-3-3-3-3-3-3-3-5-5-5-5-5-5-5-5-5-5-5-5-5-5-5-5-----|
    A|--2-2-2-2-2-2-2-2-3-3-3-3-3-3-3-3-5-5-5-5-5-5-5-5---------------------|
    
    B|------------------------------------------------------------------------|
    F|------------------------------------------------------------------------|
    D|---------------------------101010---------------------------------------|
    A|--2-2-2-2-3-3-3-3-4-4-4-5--8-8-8---2-2-2-2-3-3-3-3-4-4-4-5--------------|
    E|--2-2-2-2-3-3-3-3-4-4-4-5----------2-2-2-2-3-3-3-3-4-4-4-5--------------|
    A|--2-2-2-2-3-3-3-3-4-4-4-5----------2-2-2-2-3-3-3-3-4-4-4-5--------------|
    
    Verse
    B|------------------------------------------------------------------------|
    F|------------------------------------------------------------------------|
    D|------------------------------------------------------------------------|
    A|-0-2-------2-3-2--0-2------2-3-3--0-2------2-3-2--0-2-----2-3-2---------|
    E|-0-2-------2-3-2--0-2------2-3-3--0-2------2-3-2--0-2-----2-3-2---------|
    A|-0-2-------2-3-2--0-2------2-3-3--0-2------2-3-2--0-2-----2-3-2---------|
    
    B|----------------------------------------------------------------------|
    F|----------------------------------------------------------------------|
    D|----------------------------------------------------------------------|
    A|-0-2--0-2--0-2--0-2------2-3-2--0-2--0-2--0-2--0-2------2-3-2---------|
    E|-0-2--0-2--0-2--0-2------2-3-2--0-2--0-2--0-2--0-2------2-3-2---------|
    A|-0-2--0-2--0-2--0-2------2-3-2--0-2--0-2--0-2--0-2------2-3-2---------|
    
    B|----------------------------------------------------------------------|
    F|----------------------------------------------------------------------|
    D|----------------------------------------------------------------------|
    A|-0-2--0-2--0-2--0-2------2-3-2--0-2--0-2--0-2-------------0-0---------|
    E|-0-2--0-2--0-2--0-2------2-3-2--0-2--0-2--0-2-------------0-0---------|
    A|-0-2--0-2--0-2--0-2------2-3-2--0-2--0-2--0-2-------------0-0---------|
    
    Chorus
    B|-------------------------------------------------------------------|
    F|-------------------------------------------------------------------|
    D|--------------------------------------------------7-7-7-7-7-7-7-7--|
    A|--2-2-2-2-2-2-2-2-3-3-3-3-3-3-3-3-5-5-5-5-5-5-5-5-7-7-7-7-7-7-7-7--|x2
    E|--2-2-2-2-2-2-2-2-3-3-3-3-3-3-3-3-5-5-5-5-5-5-5-5-5-5-5-5-5-5-5-5--|
    A|--2-2-2-2-2-2-2-2-3-3-3-3-3-3-3-3-5-5-5-5-5-5-5-5------------------|
    
    B|------------------------------------------------------------------------|
    F|------------------------------------------------------------------------|
    D|---------------------------101010----------------------------101010-----|
    A|--2-2-2-2-3-3-3-3-4-4-4-5--8-8-8---2-2-2-2-3-3-3-3-4-4-4-5---8-8-8------|
    E|--2-2-2-2-3-3-3-3-4-4-4-5----------2-2-2-2-3-3-3-3-4-4-4-5--------------|
    A|--2-2-2-2-3-3-3-3-4-4-4-5----------2-2-2-2-3-3-3-3-4-4-4-5--------------|
    
    B|------------------------------------------------------------------------|
    F|------------------------------------------------------------------------|
    D|---------------------------101010---------------------------------------|
    A|--2-2-2-2-3-3-3-3-4-4-4-5--8-8-8---2-2-2-2-3-3-3-3-4-4-4-5--------------|
    E|--2-2-2-2-3-3-3-3-4-4-4-5----------2-2-2-2-3-3-3-3-4-4-4-5--------------|
    A|--2-2-2-2-3-3-3-3-4-4-4-5----------2-2-2-2-3-3-3-3-4-4-4-5--------------|
    
    Verse
    B|------------------------------------------------------------------------|
    F|------------------------------------------------------------------------|
    D|------------------------------------------------------------------------|
    A|-0-2-------2-3-2--0-2------2-3-3--0-2------2-3-2--0-2-----2-3-2---------|
    E|-0-2-------2-3-2--0-2------2-3-3--0-2------2-3-2--0-2-----2-3-2---------|
    A|-0-2-------2-3-2--0-2------2-3-3--0-2------2-3-2--0-2-----2-3-2---------|
    
    B|----------------------------------------------------------------------|
    F|----------------------------------------------------------------------|
    D|----------------------------------------------------------------------|
    A|-0-2--0-2--0-2--0-2------2-3-2--0-2--0-2--0-2--0-2------2-3-2---------|
    E|-0-2--0-2--0-2--0-2------2-3-2--0-2--0-2--0-2--0-2------2-3-2---------|
    A|-0-2--0-2--0-2--0-2------2-3-2--0-2--0-2--0-2--0-2------2-3-2---------|
    
    B|----------------------------------------------------------------------|
    F|----------------------------------------------------------------------|
    D|----------------------------------------------------------------------|
    A|-0-2--0-2--0-2--0-2------2-3-2--0-2--0-2--0-2-----------0-0-----------|
    E|-0-2--0-2--0-2--0-2------2-3-2--0-2--0-2--0-2-----------0-0-----------|
    A|-0-2--0-2--0-2--0-2------2-3-2--0-2--0-2--0-2-----------0-0-----------|
    
    Chorus
    B|-------------------------------------------------------------------|
    F|-------------------------------------------------------------------|
    D|--------------------------------------------------7-7-7-7-7-7-7-7--|
    A|--2-2-2-2-2-2-2-2-3-3-3-3-3-3-3-3-5-5-5-5-5-5-5-5-7-7-7-7-7-7-7-7--|x2
    E|--2-2-2-2-2-2-2-2-3-3-3-3-3-3-3-3-5-5-5-5-5-5-5-5-5-5-5-5-5-5-5-5--|
    A|--2-2-2-2-2-2-2-2-3-3-3-3-3-3-3-3-5-5-5-5-5-5-5-5------------------|
    
    B|------------------------------------------------------------------------|
    F|------------------------------------------------------------------------|
    D|---------------------------101010----------------------------101010-----|
    A|--2-2-2-2-3-3-3-3-4-4-4-5--8-8-8---2-2-2-2-3-3-3-3-4-4-4-5---8-8-8------|
    E|--2-2-2-2-3-3-3-3-4-4-4-5----------2-2-2-2-3-3-3-3-4-4-4-5--------------|
    A|--2-2-2-2-3-3-3-3-4-4-4-5----------2-2-2-2-3-3-3-3-4-4-4-5--------------|
    
    B|------------------------------------------------------------------------|
    F|------------------------------------------------------------------------|
    D|---------------------------101010---------------------------------------|
    A|--2-2-2-2-3-3-3-3-4-4-4-5--8-8-8---2-2-2-2-3-3-3-3-4-4-4-5--------------|
    E|--2-2-2-2-3-3-3-3-4-4-4-5----------2-2-2-2-3-3-3-3-4-4-4-5--------------|
    A|--2-2-2-2-3-3-3-3-4-4-4-5----------2-2-2-2-3-3-3-3-4-4-4-5--------------|
    
    Chorus
    B|-------------------------------------------------------------------|
    F|-------------------------------------------------------------------|
    D|--------------------------------------------------7-7-7-7-7-7-7-7--|
    A|--2-2-2-2-2-2-2-2-3-3-3-3-3-3-3-3-5-5-5-5-5-5-5-5-7-7-7-7-7-7-7-7--|x4
    E|--2-2-2-2-2-2-2-2-3-3-3-3-3-3-3-3-5-5-5-5-5-5-5-5-5-5-5-5-5-5-5-5--|
    A|--2-2-2-2-2-2-2-2-3-3-3-3-3-3-3-3-5-5-5-5-5-5-5-5------------------|
    
    Outro:
    B|----------------------------------------------------------------------|
    F|----------------------------------------------------------------------|
    D|----------------------------------------------------------------------|
    A|-0-2--0-2--0-2--0-2------2-3-2--0-2--0-2--0-2--0-2------2-3-2---------|
    E|-0-2--0-2--0-2--0-2------2-3-2--0-2--0-2--0-2--0-2------2-3-2---------|
    A|-0-2--0-2--0-2--0-2------2-3-2--0-2--0-2--0-2--0-2------2-3-2---------|
    
    B|----------------------------------------------------------------------|
    F|----------------------------------------------------------------------|
    D|----------------------------------------------------------------------|
    A|-0-2--0-2--0-2--0-2------2-3-2--0-2--0-2--0-2-------------------------|
    E|-0-2--0-2--0-2--0-2------2-3-2--0-2--0-2--0-2-------------------------|
    A|-0-2--0-2--0-2--0-2------2-3-2--0-2--0-2--0-2-------------------------|…
  • VERSE 1
    E|----2--3--5----------|
    B|-------------4-------|
    G|---------------------|
    D|---------------------|  x 4
    A|---------------------|
    E|---------------------|
    
    
    CHORUS
    E|-------------------------|
    B|-------------------------|
    G|-------------------------|
    D|-00000-44444-22222-55555-|
    A|-00000-44444-22222-55555-|…
  • Вступление:Gm F C D
    
    Gm
    Warum verbirgst du dich 
                           D#
    Warum lässt du mich raten 
    Warum erwГјrgst du mich 
    Warum kann ich nicht atmen 
    
    Припев:
    Bm                  F#
    Wenn ich dich nicht…
  • End Of Verse:
    e|--------------|
    B|--------------|
    G|--------------|
    D|---44--44-----|
    A|---44--44-----|
    D|---44--44-----|
    
    
    Chorus
    e|--------------------------------|
    B|--------------------------------|
    G|--------------------------------|
    D|--0---2---4---0---2---4---------|
    A|--0---2---4---0---2---4---------|
    D|--0---2---4---0---2---4---------|
    
    
    End…
  • Intro
    e|------------------------------|
    B|------------------------------|
    G|------------------------------|
    D|-----11\3-10\1--4-3-4-8-6-8---|x5
    A|------------------------------|
    D|------------------------------|
    
    After…
  • Intro:
    
    guitar one
    d|-------------------------------------------------------------------------|
    A|-------------------------------------------------------------------------|
    F|-------------------------------------------------------------------------|
    C|-7-7-7-7-7-7-7-7-7-7-7-7-5-5-5-5-5-5-5-5-5-5-5-5-3-3-3-3-3-3-3-3-3-3-3-3-|
    G|-7-7-7-7-7-7-7-7-7-7-7-7-5-5-5-5-5-5-5-5-5-5-5-5-3-3-3-3-3-3-3-3-3-3-3-3-|
    C|-7-7-7-7-7-7-7-7-7-7-7-7-5-5-5-5-5-5-5-5-5-5-5-5-3-3-3-3-3-3-3-3-3-3-3-3-|
    
    d|--------------------------|
    A|--------------------------|
    F|--------------------------|
    C|-2-2-2-2-2-2-2-2-2-2-2-2--|
    G|-2-2-2-2-2-2-2-2-2-2-2-2--|
    C|-2-2-2-2-2-2-2-2-2-2-2-2--|
    
    Guitar…
  • Tuning: [B F# D A E B]
    
    INTRO:
    B||-------------------------|-------------------------|
    F#|-------------------------|-------------------------|
    D||-------------------------|-------------------------|
    A||--8--8-------------------|--6--6-------------------|
    E||--8--8-------------------|--6--6--6-6-6-6-6--4--3--|
    B||--6--6--9-9-9-9-9--8--6--|--4--4-------------------|
    
    B||-------------------------|---------------------------|
    F#|-------------------------|---------------------------|
    D||-------------------------|---------------------------|
    A||--4--4-------------------|--5--5---------------------|
    E||--4--4--4-4-4-4-4--3--1--|--5--5--4-4-4-4-4--3--1--3-|
    B||--2--2-------------------|--3--3---------------------|
    
    VERSE:
    B||--------------|
    F#|--14--13------|
    D||----------10--|
    A||--------------|
    E||--------------|
    B||--------------|
    
    CHORUS:
    B||-------------------------|-------------------------|
    F#|-------------------------|-------------------------|
    D||-------------------------|-------------------------|
    A||--8--8-------------------|--6--6-------------------|
    E||--8--8-------------------|--6--6--6-6-6-6-6--4--3--|
    B||--6--6--9-9-9-9-9--8--6--|--4--4-------------------|
    
    B||-------------------------|---------------------------|
    F#|-------------------------|---------------------------|
    D||-------------------------|---------------------------|
    A||--4--4-------------------|--5--5---------------------|
    E||--4--4--4-4-4-4-4--3--1--|--5--5--4-4-4-4-4--3--1--3-|
    B||--2--2-------------------|--3--3---------------------|
    
    POST-CHORUS:
    B||--------------------------------------------------------------|
    F#|--------------------------------------------------------------|
    D||--6-6--6-6--6-6-----------------------------------------------|
    A||--6-6--6-6--6-6--4-4--4-4-------------------------------------|
    E||--4-4--4-4--4-4--4-4--4-4-------------------------------------|
    B||-----------------2-2--2-2--2-4-6-6-4-7-7-4-6-6-4-7-7-4-6-6-4--|
    
    B||----------------------------------------------|
    F#|----------------------------------------------|
    D||--6-6--6-6--6-6-------------------------------|
    A||--6-6--6-6--6-6--4-4--4-4---------------------|
    E||--4-4--4-4--4-4--4-4--4-4---------------------|
    B||-----------------2-2--2-2--2-4-6-6-4-7-7-4-6--|
    
    END:
    B||----------------|
    F#|----------------|
    D||----------------|
    A||--8-8--8-8--8-8-|
    E||--8-8--8-8--8-8-|
    B||--6-6--6-6--6-6-|…
  • Intro
    e|--------------|
    b|--------------|
    g|-4--6----7--6-|
    d|-4--4----4--4-|
    a|--------------|
    E|--------------|
    
    
    Distortion Part
    e|--------------------------------------------------|
    b|--------------------------------------------------|
    g|--------------------------7-6-7-6-7-6-7-6---------|
    d|---4-4---4----4---4---4---7-6-7-6-7-6-7-6---------|
    a|---4-4---4----4---4---4---5-4-5-4-5-4-5-4-5-4-2-4-|
    E|-0-2-2-0-2--0-2-0-2-0-2-0-------------------------|
    
    
    Verse
    e|------------|
    b|-14--13--13-|
    g|------------|
    d|------------|
    a|------------|
    E|------------|
    
    
    You…
  • Intro x1
    
    D|-------------------------|
    A|-------------------------|
    D|-------------------------|
    G|-------------------------|
    H|------12~--13~--10~12~13~|
    e|-12~---------------------|
    
    Verse x4
    
    D|-------------------------------------------------|
    A|-------------------------------------------------|
    D|-------------------------------------------------|
    G|-------------------------------------------------|
    H||-----12~--13~--10~12~13~-----12~--13~--10~12~13~|
    e|-12~---------------------11~---------------------|
    
    Prechorus…
  • VERSE:
    d|--------------------------------------------------|
    A|--------------------------------------------------|
    F|--------------------------------------------------|
    C|--4-5-4-----4-4-5-4------4-5-4-----4-4-5-4---2----|
    G|--4-5-4-----4-4-5-4------4-5-4-----4-4-5-4---2----|x6
    C|--4-5-4-----4-4-5-4------4-5-4-----4-4-5-4---2----|
    
    CHORUS:
    d|----------------------------------------------------------------------------|
    A|----------------------------------------------------------------------------|
    F|----------------------------------------------------------------------------|
    C|-7-7-7-777\6-6-66-6-4--4---4--77777777-7-7-7-777\6-6-66-6-4-4-4-4-4-4-4-4-4-|
    G|-5-5-5-555\4-4-44-4-4--4---4--77777777-5-5-5-555\4-4-44-4-4-4-4-4-4-4-4-4-4-|
    C|--------------------4--4---4--77777777--------------------4-4-4-4-4-4-4-4-4-|
    
    d|--------------------------------------------------------------------------|
    A|--------------------------------------------------------------------------|
    F|--------------------------------------------------------------------------|
    C|-4-4-4-4442-2-22-2-4-4-4-4-4-4-4-4-4-7-7-7-777\6-6-66-6-4-4-4-4-4-4-4-4-4-|
    G|-2-2-2-2222-2-22-2-4-4-4-4-4-4-4-4-4-5-5-5-555\4-4-44-4-4-4-4-4-4-4-4-4-4-|
    C|----------2-2-22-2-4-4-4-4-4-4-4-4-4--------------------4-4-4-4-4-4-4-4-4-|
    
    VERSE:
    d|--------------------------------------------------|
    A|--------------------------------------------------|
    F|--------------------------------------------------|
    C|--4-5-4-----4-4-5-4------4-5-4-----4-4-5-4---2----|
    G|--4-5-4-----4-4-5-4------4-5-4-----4-4-5-4---2----|x6
    C|--4-5-4-----4-4-5-4------4-5-4-----4-4-5-4---2----|
    
    CHORUS:
    d|----------------------------------------------------------------------------|
    A|----------------------------------------------------------------------------|
    F|----------------------------------------------------------------------------|
    C|-7-7-7-777\6-6-66-6-4--4---4--77777777-7-7-7-777\6-6-66-6-4-4-4-4-4-4-4-4-4-|
    G|-5-5-5-555\4-4-44-4-4--4---4--77777777-5-5-5-555\4-4-44-4-4-4-4-4-4-4-4-4-4-|
    C|--------------------4--4---4--77777777--------------------4-4-4-4-4-4-4-4-4-|
    
    d|--------------------------------------------------------------------------|
    A|--------------------------------------------------------------------------|
    F|--------------------------------------------------------------------------|
    C|-4-4-4-4442-2-22-2-4-4-4-4-4-4-4-4-4-7-7-7-777\6-6-66-6-4-4-4-4-4-4-4-4-4-|
    G|-2-2-2-2222-2-22-2-4-4-4-4-4-4-4-4-4-5-5-5-555\4-4-44-4-4-4-4-4-4-4-4-4-4-|
    C|----------2-2-22-2-4-4-4-4-4-4-4-4-4--------------------4-4-4-4-4-4-4-4-4-|
    
    SOLO:
    guitar…
  • verse
    b|---------------------|
    g|---------------------|
    d|-2-h4--2-h4--2-h4----|
    a|-2-h4--2-h4--2-h4----|
    e|-0-h2--0-h2--0-h2----|
    B|---------------------|
    
    b|----------------------|
    g|----------------------|
    d|-2-h4--2-h4--2-h4---4-|
    a|-2-h4--2-h4--2-h4-4---|
    e|-0-h2--0-h2--0-h2-----|
    B|----------------------|
    
    chorus
    b|------------------------|
    g|------------------------|
    d|------------------------|
    a|----2222222225555555----|
    e|----2222222225555555----|
    B|----0000000003333333----|…
  • INTRO:(clean)
    d|-------------------------------------------------------------|
    A|-------------------------------------------------------------|
    F|-------------------------------7-7-7-7-7-7-------------------|
    C|-9-9-9-9-9-9--5--5-5-5-5-5-5-5-7-7-7-7-7-7-7--7-7-7-7-7-7-7--|
    G|-9-9-9-9-9-9--5--5-5-5-5-5-5-5-5-5-5-5-5-5-7--7-7-7-7-7-7-7--|
    C|-9-9-9-9-9-9--5--5-5-5-5-5-5-5-------------7--7-7-7-7-7-7-7--|
    
    d|-------------------------------------------------------------|
    A|-------------------------------------------------------------|
    F|-------------------------------7-7-7-7-7-7-------------------|
    C|-9-9-9-9-9-9--5--5-5-5-5-5-5-5-7-7-7-7-7-7-7-----------------|
    G|-9-9-9-9-9-9--5--5-5-5-5-5-5-5-5-5-5-5-5-5-7-----------------|
    C|-9-9-9-9-9-9--5--5-5-5-5-5-5-5-------------7-----------------|
    
    (distorted)
    d|-------------------------------------------------------------|
    A|-------------------------------------------------------------|
    F|-------------------------------------------------------------|
    C|-9-9-9-9-9-9--5--5-5-5-5-5-5-5-0-0-0-0-0-0-7--7-7-7-7-7-7-7--|
    G|-9-9-9-9-9-9--5--5-5-5-5-5-5-5-0-0-0-0-0-0-7--7-7-7-7-7-7-7--|x2
    C|-9-9-9-9-9-9--5--5-5-5-5-5-5-5-0-0-0-0-0-0-7--7-7-7-7-7-7-7--|
    
    VERSE:
    d|------------------------------------------------------------------------|
    A|------------------------------------------------------------------------|
    F|--------------------------------------------6667-7-9-9---------6667799--|
    C|-9-9-9-9-----------9-9-9-9---------5557779996667-7-9-95557779996667799--|x2
    G|-9-9-9-9-----------9-9-9-9---------5557779994445-5-7-75557779994445577--|
    C|-9-9-9-9-----------9-9-9-9---------555777999----------555777999---------|
    
    d|------------------------------------------------|
    A|------------------------------------------------|
    F|------------------------------------------------|
    C|-5-5-5-5-----7-7-7-7------9-9-9-7-9--9-9-9-7-9--|x3
    G|-5-5-5-5-----7-7-7-7------7-7-7-5-7--7-7-7-5-7--|
    C|-5-5-5-5-----7-7-7-7----------------------------|
    
    d|-----------------------|
    A|-----------------------|
    F|-----------------------|
    C|-5-5-5-5-----7-7-7-7---|
    G|-5-5-5-5-----7-7-7-7---|
    C|-5-5-5-5-----7-7-7-7---|
    
    CHORUS:
    d|-------------------------------------------------------------|
    A|-------------------------------------------------------------|
    F|-------------------------------------------------------------|
    C|-9-9-9-9-9-9--5--5-5-5-5-5-5-5-0-0-0-0-0-0-7--7-7-7-7-7-7-7--|x2
    G|-9-9-9-9-9-9--5--5-5-5-5-5-5-5-0-0-0-0-0-0-7--7-7-7-7-7-7-7--|
    C|-9-9-9-9-9-9--5--5-5-5-5-5-5-5-0-0-0-0-0-0-7--7-7-7-7-7-7-7--|
    
    VERSE:
    d|------------------------------------------------------------------------|
    A|------------------------------------------------------------------------|
    F|--------------------------------------------6667-7-9-9---------6667799--|
    C|-9-9-9-9-----------9-9-9-9---------5557779996667-7-9-95557779996667799--|x2
    G|-9-9-9-9-----------9-9-9-9---------5557779994445-5-7-75557779994445577--|
    C|-9-9-9-9-----------9-9-9-9---------555777999----------555777999---------|
    
    d|------------------------------------------------|
    A|------------------------------------------------|
    F|------------------------------------------------|
    C|-5-5-5-5-----7-7-7-7------9-9-9-7-9--9-9-9-7-9--|x3
    G|-5-5-5-5-----7-7-7-7------7-7-7-5-7--7-7-7-5-7--|
    C|-5-5-5-5-----7-7-7-7----------------------------|
    
    d|-----------------------|
    A|-----------------------|
    F|-----------------------|
    C|-5-5-5-5-----7-7-7-7---|
    G|-5-5-5-5-----7-7-7-7---|
    C|-5-5-5-5-----7-7-7-7---|
    
    CHORUS:
    d|-------------------------------------------------------------|
    A|-------------------------------------------------------------|
    F|-------------------------------------------------------------|
    C|-9-9-9-9-9-9--5--5-5-5-5-5-5-5-0-0-0-0-0-0-7--7-7-7-7-7-7-7--|x2
    G|-9-9-9-9-9-9--5--5-5-5-5-5-5-5-0-0-0-0-0-0-7--7-7-7-7-7-7-7--|
    C|-9-9-9-9-9-9--5--5-5-5-5-5-5-5-0-0-0-0-0-0-7--7-7-7-7-7-7-7--|
    
    INTERLUDE:(clean)
    d|-------------------------------------------------------------|
    A|-------------------------------------------------------------|
    F|-------------------------------7-7-7-7-7-7-------------------|
    C|-9-9-9-9-9-9--5--5-5-5-5-5-5-5-7-7-7-7-7-7-7--7-7-7-7-7-7-7--|
    G|-9-9-9-9-9-9--5--5-5-5-5-5-5-5-5-5-5-5-5-5-7--7-7-7-7-7-7-7--|
    C|-9-9-9-9-9-9--5--5-5-5-5-5-5-5-------------7--7-7-7-7-7-7-7--|
    
    d|-------------------------------------------------------------|
    A|-------------------------------------------------------------|
    F|-------------------------------7-7-7-7-7-7-------------------|
    C|-9-9-9-9-9-9--5--5-5-5-5-5-5-5-7-7-7-7-7-7-7-----------------|
    G|-9-9-9-9-9-9--5--5-5-5-5-5-5-5-5-5-5-5-5-5-7-----------------|
    C|-9-9-9-9-9-9--5--5-5-5-5-5-5-5-------------7-----------------|
    
    CHORUS:
    d|-------------------------------------------------------------|
    A|-------------------------------------------------------------|
    F|-------------------------------------------------------------|
    C|-9-9-9-9-9-9--5--5-5-5-5-5-5-5-0-0-0-0-0-0-7--7-7-7-7-7-7-7--|
    G|-9-9-9-9-9-9--5--5-5-5-5-5-5-5-0-0-0-0-0-0-7--7-7-7-7-7-7-7--|x8
    C|-9-9-9-9-9-9--5--5-5-5-5-5-5-5-0-0-0-0-0-0-7--7-7-7-7-7-7-7--|
    
    d|-----------|
    A|-----------|
    F|-----------|
    C|-9-9-9-9\--|
    G|-9-9-9-9\--|
    C|-9-9-9-9\--|…
  • intro:
    d|--13-----------------|
    A|-----13-14-11-13-14--|
    F|---------------------|
    C|---------------------|
    G|---------------------|
    C|---------------------|
    
    Verse:
    d|--13----------------12-----------------|
    A|-----13-14-11-13-14----13-14-11-13-14--|
    F|---------------------------------------|
    C|---------------------------------------|
    G|---------------------------------------|x4
    C|---------------------------------------|
    
    d|--11----------------------------|
    A|-----14-13----13----------------|
    F|-----------13----13---------10--|
    C|----------------------13-11-----|
    G|--------------------------------|
    C|--------------------------------|
    
    Chorus
    d|-------------------------------------------------------------------------|
    A|-------------------------------------------------------------------------|
    F|-------------------------------------------------------------------------|
    C|--8-8-8-8-8-8-8-8-8-8-8-8-8-8-8-8-4-4-4-4-4-4-4-4-4-4-4-4-4-4-4-4--------|
    G|--8-8-8-8-8-8-8-8-8-8-8-8-8-8-8-8-4-4-4-4-4-4-4-4-4-4-4-4-4-4-4-4--------|
    C|--8-8-8-8-8-8-8-8-8-8-8-8-8-8-8-8-4-4-4-4-4-4-4-4-4-4-4-4-4-4-4-4--------|
    
    d|-------------------------------------------------------------------------|
    A|-------------------------------------------------------------------------|
    F|-------------------------------------------------------------------------|
    C|--6-6-6-6-6-6-6-6-6-6-6-6-6-6-6-6-1-1-1-1-1-1-1-1-1-1-1-1-1-1-1-1--------|
    G|--6-6-6-6-6-6-6-6-6-6-6-6-6-6-6-6-1-1-1-1-1-1-1-1-1-1-1-1-1-1-1-1--------|
    C|--6-6-6-6-6-6-6-6-6-6-6-6-6-6-6-6-1-1-1-1-1-1-1-1-1-1-1-1-1-1-1-1--------|
    
    Verse:
    d|--13----------------12-----------------|
    A|-----13-14-11-13-14----13-14-11-13-14--|
    F|---------------------------------------|
    C|---------------------------------------|
    G|---------------------------------------|x2
    C|---------------------------------------|
    
    d|--11----------------------------|
    A|-----14-13----13----------------|
    F|-----------13----13---------10--|
    C|----------------------13-11-----|
    G|--------------------------------|
    C|--------------------------------|
    
    Chorus…
  • Intro
    
    Guitar One
    B |------------------------------------------------------|
    F#|------------------------------------------------------|
    D |--4-4-4-4-4-6-----------------------------------------|
    A |--4-4-4-4-4-6--4-4-4-4-4-7--5-5-5-5-5-4--2-2-2-2-2-4--|
    E…
  • Verse: /
    
    Chorus:
    e|-----------------------------------|
    h|-----------------------------------|  4x
    g|-----------------------------------|
    d|--7-7-7-7-7-7-7-7-3-3-3-3-5-5-5-5--|
    a|--7-7-7-7-7-7-7-7-3-3-3-3-5-5-5-5--|
    D|--7-7-7-7-7-7-7-7-3-3-3-3-5-5-5-5--|
    
    Chorus…
  • Tuning:Drop C tabed for Drop D
    
    Guitars I&II
    e|---------------------|
    B|---------------------|
    G|---------------------|X6
    D|-5535--555/8855--555-|
    A|-5535--555/8855--555-|
    D|-5535--555/8855--555-|
    
    
    0:24 Guitars…
  • Tuning Drop D, 1 Step down, CGCfad
    
    
    [VERSE]
    
    
    d|---------------------------------------|
    a|---------------------------------------|
    f|---------------------------------------|
    C|--------3------0--2-------2--0-2-3-6---|
    G|---2-2--3-3-3--0--2--2-2--2--0-2-3-6---|
    C|---2-2--3-3-3--0--2--2-2--2--0-2-3-6---|
    P.M.…
  • Intro [Repeat Twice]
    E|-------------------|
    B|-------------------|
    G|-------------------|
    D|-2--4-5-7-2--4-4-7-|
    A|-2--4-5-7-2--4-5-7-|
    E|-0--2-3-5-0--2-3-5-|
    
    Verse 1 [Repeat 4 Times]
    E|---------|
    B|---------|
    G|---------|
    D|---------|
    A|---------|
    E|-0-2-3-5-|
    
    After…
  • Main Riff/Verse Riff
    e|------------------------------|
    B|------------------------------|
    G|------------------------------|
    D|-2-5-7-8-7--2-5-7-8-7--2-2--2-|
    A|-2-5-7-8-7--2-5-7-8-7--2-2--2-|
    E|-0-3-5-6-5--0-3-5-6-5--0-0--0-|
    .…
Наверх