Аккорды «Orgy»

Orgy
В какой то мере группе ORGY очень повезло: они оказались в нужном месте в нужное время. Этот коллектив является любимчиками "вездесущих" KORN. Так или иначе, эти две группы пересекаются в своем творчестве (о чем подробнее будет сказано ниже). До 1993 года существовала такая группа как SEX ART, в составе которой был нынешний гитарист ORGY Ryan Shuck, а вокальные партии исполнял никто иной, как Jonathan Davis - нынешний фронтмен группы KORN. С тех пор между ребятами сложились хорошие отношения,… Читать полностью... В какой то мере группе ORGY очень повезло: они оказались в нужном месте в нужное время. Этот коллектив является любимчиками "вездесущих" KORN. Так или иначе, эти две группы пересекаются в своем творчестве (о чем подробнее будет сказано ниже). До 1993 года существовала такая группа как SEX ART, в составе которой был нынешний гитарист ORGY Ryan Shuck, а вокальные партии исполнял никто иной, как Jonathan Davis - нынешний фронтмен группы KORN. С тех пор между ребятами сложились хорошие отношения, как в жизни, так и в творчестве. Тем более "Зёрна" всегда чувствуют настоящий потенциал и талант, а этого ORGY не занимать. И теперь эти группы идут нога в ногу, ступая по шаткому подиуму рок-сцены. Группа образовалась в 1997 году в Лос-Анжелесе и почти сразу получила широкую известность среди публики. Правда, группе пришлось немного поработать в "андеграунде" для наработки достаточного количества материала, и только потом проявить себя во всей красе. "Мы никогда не думаем, как люди отреагируют на нашу группу", - говорит вокалист группы Jay. "Но они всегда на нас реагируют положительно! Это уже вне всяких сомнений!". "Да, - согласен гитарист Ryan. - У каждого есть своё мнение про наш коллектив, а это уже по-любому здорово!" С этими словами согласны и ребята из группы Korn, которые и устроили ORGY их первую студийную запись. "Это что-то новое, не похожее на другое, это то, что зажигает меня", - говорит солист Korn Jonathan Davis. ORGY собрались по сути дела достаточно случайно. Эти пятеро парней давно знали друг друга, так как им не раз приходилось встречаться, ещё когда они все выступали в разных командах. Записи альбома сопутствовало много интересных событий. Запись проходила на снежной горе вTahoe, в огромном помещении. Появилось свободное, футуристическое чувство к музыке. "Да, это было не только здорово, но и довольно холодновато", - говорят участники Orgy. В 1998 году группа поучаствовала в грандиозном туре Family Values, организованным группой KORN. В туре также принимали участие такие монстры, как ICE CUBE, RAMMSTEIN и LIMP BIZKIT. В период с 1998 по 2001 год группа Orgy выпустила два альбома и несколько синглов, два из которых стали макси-синглами. 25 октября 2010 года Амир Дерак в своем профиле на Myspace опубликовал новость о том, что Джей Гордон окончательно покинул группу Orgy ради создания собственного проекта под этим же названием. Амир Дерак: "Мы не знаем, что это значит для будущего Orgy, но мы считаем, что Джей намерен выпустить новую музыку под названием Orgy. Мы не знаем, ищет ли Джей новую группу, чтобы заменить нас, или он планирует делать все это самостоятельно. Джей талантливый музыкант, и мы уверены, что он создаст нечто особенное. За последние несколько лет мы пытались собрать группу и отправиться в тур или написать новую музыку – даже если у нас было свое собственное дело, а также три оригинальных музыкальных проекта (Julien-K, Dead By Sunrise и Circuit Freq), мы всегда были готовы выделить время для Orgy. Нас огорчает то, что Джей выбрал для создания музыки имя «Orgy» без своих братьев, которые помогли создать это имя, но мы действительно желаем ему всего наилучшего." Скрыть...
Популярные аккорды Orgy:
алфавиту | просмотрам | случайно
  • Intro/Verse:
    |------------------------------------|
    |------------------------------------|
    |------------------------------------|
    |------------------------------------|
    |------------------------------------|
    |-10-8-10--10-8-10--8h13p8h13p8h13p8-|
    
    Fill:
    |----------------------------|
    |----------------------------|
    |----------------------------|
    |-10-13--10-13---9-13--9-13--|
    |-10-13--10-13---9-13--9-13--|
    |-10-13--10-13---9-13--9-13--|
    
    Prechorus:…
  • Intro/Verse it sound really good with wah pedal or chorus flanger Ps greg tomcza is a big 
    fag that likes defult and thats the only song he know how to play by tory 
    
       |----------------------------------------------| L…
  • Bass Tablature
    
    Tuning: Standard Five String (BEADG)
    
    Intro
    G|---------------------------------------------------
    D|---------------------------------------------------
    A|---------------------------------------------------
    E|---------------------------------------------------
    B|--7-7-0-3-3-0-5-5-0-1-1-0-7-7-0-3-3-0-5-5-0-4-4-0--
    Then…
  • 1st Verse 
    
       |----------------------|----------------------| L 
       |----------------------|----------------------| 
       |----------------------|----------------------| 
       |----------------------|----------------------|…
  • E A D G Tuning 
            Part 1 
    G 
    D 
    A 
    E 0000  11  3333 2222 
    
            Part 2 
    G 
    D 
    A 
    E 00 
    
            Part 3 
    G 
    D 
    A 
    E 2 11 3 22 2 11 3 22 
    
            Part 4 
    G 
    D 
    A 
    E 1111111 000 333 2222 
    
            Part 5 
    G 
    D 
    A…
  • Verse 
    
       |-----------------12--------| L 
       |----------12-11-----9--/11-| 
       |---------------------------| 
       |---------------------------| 
       |---------------------------| 
       |---------------------------| 
    
       |---------------------------|…
  • Tuning: Drop Db
    
    Intro and Post Chorus(both)/Outro (rhythem)
    Eb|------------------------------------------------------|
    Bb|------------------------------------------------------|  
    Gb|------------------------7-7-6-5--5--5--5-7-2--2--2--2-|…
  • Tuning- Eb-Ab-Db-Gb-Bb-Eb
    
    Intro
    Eb|------8---------8---------10---------10----|
    Bb|-8-10---10-8-10---10-8-10----10-8-10----10-|
    Gb|-------------------------------------------|
    
    Intro-Ending
    Gb|-2----0-------|
    Db|------5--0----|
    Ab|---------5----|
    
    Verse
    Gb|-0----0--------------|
    Db|-----------0----0----|
    
    Chorus
    Db|-----------------3-3-3-3-1-1-1-1-|
    Ab|-0-0-0-0-3-3-3-3-3-3-3-3-1-1-1-1-|
    Eb|-5-5-5-5-3-3-3-3-----------------|
    
    Interlude
    Bb|-------------------------------------------------
    Gb|-4-4-4-4-4-4-4-4-4-4-4-4-4-4-4-4-0-0-0-0-0-0-0-0-
    Db|-4-4-4-4-4-4-4-4-4-4-4-4-4-4-4-4-0-0-0-0-0-0-0-0-
    
    -----------------------------------------------
    -0-0-0-0-0-0-0-0-2-2-2-2-2-2-2-2-2-2-2-2-2-2-2-
    -0-0-0-0-0-0-0-0-2-2-2-2-2-2-2-2-2-2-2-2-2-2-2-
    
    ---------------------------------|
    -0-0-0-0-0-0-0-0-0-0-0-0-0-0-0-0-|
    -0-0-0-0-0-0-0-0-0-0-0-0-0-0-0-0-|…
  • Tuning: Standard Five String (BEADG)
    
    Chorus/intro
    Play Several Times
    Use distortion
    G|--------------
    D|--------------
    A|--------------
    E|--------------
    B|--3343-3343-
    
    Verse Line
    Clean Tone
    G|------------------------
    D|------------------------
    A|------------------------
    E|------------------------
    B|--4-4-2~----4-4-2~---5~-…
  • tuning- EADGBE
    
    INTRO
    D|-3-3-3-3-3-3-3-3--1-1-6-6-|
    A|-3-3-3-3-3-3-3-3--1-1-6-6-|
    E|--------------------------|
    
    VERSE
    G|------------------0^-|
    D|---------------------|
    A|-0-0-0-0-0-0-0-0-----|
    E|-0-0-0-0-0-0-0-0-----|
    
    PRE-CHORUS
    D|-1-0-0--0-0-0--0-0-0--0-0-0--|
    A|-1-0-0--0-0-0--0-0-0--0-0-0--|
    E|-1-0-0--0-0-0--0-0-0--0-0-0--|
    
    CHORUS
    D|-0-0-0-0-0-0-0-0-7-7-7-7-7-7-7-7-7-
    A|-0-0-0-0-0-0-0-0-7-7-7-7-7-7-7-7-7-
    E|-0-0-0-0-0-0-0-0-7-7-7-7-7-7-7-7-7-
    
    -0-0-0-0-0-0-0-0-5-5-5-5-5-5-5-5-|
    -0-0-0-0-0-0-0-0-5-5-5-5-5-5-5-5-|
    -0-0-0-0-0-0-0-0-5-5-5-5-5-5-5-5-|…
  • Tuning: Dropped D (D A D G B E)
    
       Chorus:
    E|-------------------------------------------------------------------||
    B|-------------------------------------------------------------------||
    G|-------------------------------------------------------------------||
    D|-6--------4--------0--------2-/---6-------4-------2-------4--2--4--||
    A|-6--------4--------0--------2-/---6-------4-------2-------4--2--4--||
    D|-6--------4--------0--------2-/---6-------4-------2-------4--2--4--||…
  • Chorus 
    
       |---|---|---|---| R 
       |---|---|---|---| 
       |---|---|---|---| 
       |-6-|-2-|-3-|-5-| 
       |-6-|-2-|-3-|-5-| 
       |-4-|-0-|-1-|-3-| 
       16x 4x 12x 5x 
    
       |-12^-| R 
       |-----| 
       |-----| 
       |-----| 
       |-----|…
  • Rhythme play this through the whole song 
    
       |-----------| R 
       |-----------| 
       |-----------| 
       |-8-------6-| 
       |-8-------6-| 
       |-6-------4-| 
    
       Lead plays all this 
    
       |--------------------| L 
       |-10h11-10h11-h12^-^-|…
  • Verse 
       (Amir Does fx w/...) 
       |---------------| L 
       |-11-^-and 12-^-| 
       |---------------| 
       |---------------| 
       |---------------| 
       |---------------| 
       |---------------| 
    
       |-----------| R 
       |-----------|…
  • Chorus/verse (for rhythme,no lead in verse) 
    
       |----------------| R 
       |----------------| 
       |-7---9>>--------| 
       |-7---7>>--9---5-| 
       |-5--------9---5-| 
       |----------7---3-| 
    
       |----------------| L 
       |----------------|…
  • Synth Guitar Intro/ Chorus/ Verse
              
              -------8-9-8-----5---7------------8--9--8---5---6-----------------------------
              -6-------------------------6--------------------------------------------------…
  • Tuning: Drop Db
    
    Intro/Post-chorus/Post-interlude (lead)
    Eb|------------------------------------------------|
    Bb|------------------------------------------------|
    Gb|------------------------------------------------|
    Db|------------------------------------------------|
    Ab|-------7---4-------2----------7--6--4-------2---|
    Db|-6-------------------6--6---------------------6-|
    
    Intro/Post-chorus/Post-interlude/Final…
  • Intro/Chorus 
    
       |-------------------| R 
       |-------------------| 
       |-------------------| 
       |-7--------7--------| 
       |-7-----6^-7-----5^-| 
       |-5--------5--------| 
    
       |------------------12-----------------------|…
  • Bass Tablature
    
    Tuning: Standard Five String (BEADG)
    Note: This song can be play on a four string bass with Drop-D tuning (DADG).
    
    Intro (Five String)
    Use Medium Distotion Or Simular Effect
    Play Once
    G|
    D|
    A|
    E|
    B|--5h5-676-5-6h676-5-676-5-6h676-5-676h5~-676-5~-676-5~-676-9~8~
    
    First…
  • Intro 
    
       |--------------------| L 
       |-12^---12^---12^----| 
       |-----------------12-| 
       |--------------------| 
       |--------------------| 
       |--------------------| 
    
       Bridge 
    
       |---------------|-----------------|…
  • Intro/Chorus 
    
       |---------------------------------| R 
       |---------------------------------| 
       |---------------------------------| 
       |-5-5---5/4-4-4-7-7-2-2-4-4---3-3-| 
       |-5-5---5/4-4-4-7-7-202-4-4---3-3-|…
  • Intro Part 1
    G|---------||
    D|---------||
    A|---------||
    E|---------||
    B|--4-4--|| x4
    
    Intro Part 2
    G|-----------||
    D|-----------||
    A|-----------||
    E|-----------||
    B|--4-4-4-4--|| x4
    
    Verse Part 1 (most likely the riff youre…
  • Tuning: Drop Db
    
    Intro/Pre-Interlude:
    Eb|--------------------------------------|
    Bb|--------------------------------------|
    Gb|-6~~~~~----6~~~~~----6~~~~~----6~~~~~-| (x2 during 
    Db|--------------------------------------|…
Наверх