Аккорды «P. Diddy»

P. Diddy
Diddy в представлении не нуждается. Величайший импресарио хип-хопа 90-х. Создатель многомиллионного развлекательного бизнеса для "мальчишей-плохишей" - Bad Boy Entertainment. Обладатель звания "Композитор года". Оригинальный автор, удачливый продюсер и звезда телевидения. Combs родился в1970 году Гарлеме, провел все свое детство c матерью в штате Нью-Йорк, а затем пошел учиться в Howard University в Вашингтоне. В пору учебы Sean убедил своего «друга детства», рэппера Heavy D поработать с компанией… Читать полностью... Diddy в представлении не нуждается. Величайший импресарио хип-хопа 90-х. Создатель многомиллионного развлекательного бизнеса для "мальчишей-плохишей" - Bad Boy Entertainment. Обладатель звания "Композитор года". Оригинальный автор, удачливый продюсер и звезда телевидения. Combs родился в1970 году Гарлеме, провел все свое детство c матерью в штате Нью-Йорк, а затем пошел учиться в Howard University в Вашингтоне. В пору учебы Sean убедил своего «друга детства», рэппера Heavy D поработать с компанией Uptown Records, с которой сам сотрудничал. Еще в 1990-91 –х годах там выходили альбомы Father MC ,Jodeci и Mary J. Blige, а Puff Daddy значился как A&R Executive. После того как Heavy D все-таки выпустил свой альбом “Blue Funk” на Uptown, Puff Daddy был уволен с лэйбла. В 1993 году он основывает свою звукозаписывающую фирму Bad Boy, первоначально не имеющую даже офиса и работников. Год тяжелой работы принес свои плоды и Puff Daddy подписал наконец-то своих первых артистов The Notorious B.I.G. и рэппера Craig Mack. В 1994 году Craig Mack попал в Top Ten с песней “Flava In Ya Ear” (feat. LL Cool J, Busta Rhymes, Rampage) и получил первую «платину» для Bad Boy. Дальше «контора» Puff Daddy и компании прорывается на рынок за счет дважды «платинового» дебютного альбома Notorious B.I.G. “Ready To Die”. Следом Sean Combs начинает работать с Faith Evans, женой Notorious B.I.G., у которой уже в 1995 вышел первый альбом, а также с женским трио Total, молодыми парнями из группы 112, 20-летним рэппером по прозвищу Mase и командой The LOX. В середине девяностых годов начались выяснения отношений Puff Daddy и Notorious B.I.G с лэйблом Death Row, Suge Knight’ом и 2PAC'ом. Вскоре 2PAC’a застрелили - а через год и Notorious’a. В 1997 году Puff Daddy записал свой первый дебютный альбом “No Way Out”, ставший платиновым аж семь(!) раз и получившем Грэмми за «Лучший рэп альбом», помимо этого Грэмми получила и песня-посвящение Notorious’y “I’ll Be Missing You”. В 1999 г.Puff Daddy выпускает второй альбом Forever, оказавшийся не очень то успешным, что было связано с романом с суперкрасавицей Дженифер Лопес. Отношения пафосного поп-рэппера с амбициозной актрисой и певицей были омрачнены криминальным инцендентом с пальбой в ночном клубе, из-за которого у Puff Daddy впоследствии были большие проблемы с законом. Jlo «отшила» богатенького Puffy в 2001 году на кануне дня Св. Валентина. После этого он сменил свой творческий псевдоним на P.Diddy. В последующие годы увидели свет альбомы “Thank You” и “The Saga Continues”, а за ними еще несколько дисков с коммерческой «мочалкой» под этикеткой «Bad Boy». Arista в 2002 году отказалась заниматься дистрибьюцией продукции Bad Boy, контракт был разорван, с лэйбла ушли 112 и Faith Evans. Diddy теперь работает с Universal. В 2006 году вышел альбом Press Play, на котором - множество дуэтов - с Николь Шерцзингер, Кристиной Агилерой, Кейшей Коул и др. Он снялся в нескольких телефильмах о знаменитых рэпперах: "Biggie and Tupac", "Tupac: Resurrection" и других. В 2003 году дошла очередь и до его нескромной персоны: на экраны вышел телефильм "Diddy Runs the City", режиссуру которого он осуществил самостоятельно. Новые продюсерские и режиссерские проекты Пи Дидди тоже связаны с телевидением. Скрыть...
Популярные аккорды P. Diddy:
алфавиту | просмотрам | случайно
  • g :320000
    em:022000
    c :032010
    d :000232
    
    G
    --------------------------------------------
    ---------0------------------0---------------
    -----0-------0----------0-------0-----------
    ---0---0---0---0------0---0---0---0---------
    --------------------------------------------
    -3------------------3-----------------------
    
    Em
    --------------------------------------------
    ---------0------------------0---------------
    -----0-------0----------0-------0-----------
    ---2---2---2---2------2---2---2---2---------
    --------------------------------------------
    -0------------------0-----------------------
    
    C…
  • Tune down E-major to D.
    Listen to the song and catch the right rhythm.
    ~ = slide downwards
    ґ = let note ring slightly
    
     
    
    e|------------------------------------------------------------
    B|------------------------------------------------------------
    G|------------------------------------------------------------
    D|----------7-4------------------------------------------------
    A|------~7------7-9--4-2--4-2-4--4-4-2-0------4-2-0ґ--0-------
    D|--4-4--------------------------------------4-4---------4---4--start…
  • Intro
    -----------------------------------------------------
    -----------------------------------------------------
    -4-4-4--4-4-4---5-5-5--5-5-5---6-6-6--6-6-6---7-7-7--
    -x-x-x--x-x-x---x-x-x--x-x-x---x-x-x--x-x-x---x-x-x--
    -2-2-2--2-2-2---3-3-3--3-3-3---4-4-4--4-4-4---5-5-5--
    --------------0--------------0--------------0--------…
  • e|-1-0-------------------------------0-0-1-0-------------|
    B|-----3-2-3-0-3-2-2-2-3-2-0-2-3-0-3---------3-2-3-------|
    G|-------------------------------------------------------|
    D|-------------------------------------------------------|
    A|-------------------------------------------------------|
    E|-------------------------------------------------------|
    
    
    e|-1-0-------------------------------0-0-1-0-------------|
    B|-----3-2-3-0-3-2-2-2-3-2-0-2-3-0-3---------3-2-0-------|
    G|-------------------------------------------------------|
    D|-------------------------------------------------------|
    A|-------------------------------------------------------|
    E|-------------------------------------------------------|…
  • into: G, G, Em, Em, C, D, G
    
    G
     Every breath you take, 
                    Em
     Every move you make,
     
     Every bond you break,
    C 
     Every step you take,
    Dsus4                Em 
     I'll be watching you.
           Dsus4   G  
     Every…
  • hammer on- h
    slide- s
    
    
    --9h11-9--12-11-9-11-11s12-11-7-9-7s9-9h11--| then continue it until the second
    --------------------------------------------| part and here is the second part
    --------------------------------------------|
    --------------------------------------------|
    --------------------------------------------|
    --------------------------------------------|
    
    ----------------------------------------------------------------------------
    
    --9h11-9--12-11-9-11-11s12-11-7-9-7s5-5h7-5-5h7-7-9-7h9-7-9h11-9-----|…
  • Notation:  Slide out to 0
    
    Riff #1                        Riff #2
    G||--------------------------||--------------------------||
    D||--------------------------||--5-4-3-------------------||
    A||--------------------------||--------4----3-1----------||
    E||--3---3-3-----1-3-----3-6-||--------------------------||
    
    Riff…
  • e-----------------|
    B---------0-------|
    G-----2-----2---2-|
    D---0---0-----0---|   x 2
    A-----------------|
    E-3---------------|
    
    e-----------------|
    B-----------------|
    G---------0-------|
    D-----4-----4---4-|   x 2
    A---2---2-----2---|
    E-0---------------|
    
    e---------0-------|
    B-----3-----3---3-|
    G---0---0-----0---|
    D-----------------|…
Наверх