Аккорды «Panda»

Panda
Панда (позже переименованная в Pxndx) - мексиканская рок-группа, образованная в г. Монтеррей, Нуэво-Леон в 1996 г. Группа приобрела определенную известность 2001 г. с альбомом Arroz con leche. Основной успех принесли альбомы - Para ti con desprecio (2005 г.) и Amantes Sunt Amentes (2007 г.). Текущий состав: José Madero (Pepe) - вокал, гитара, синтезатор, клавишные (с 1996 г.) Arturo Arredondo (Arthur/R2D2) - гитара, вокал (с 2005 г.) Ricardo Treviño (Rix) - бас-гитара, бэк-вокал (с 1996 г.) Jorge… Читать полностью... Панда (позже переименованная в Pxndx) - мексиканская рок-группа, образованная в г. Монтеррей, Нуэво-Леон в 1996 г. Группа приобрела определенную известность 2001 г. с альбомом Arroz con leche. Основной успех принесли альбомы - Para ti con desprecio (2005 г.) и Amantes Sunt Amentes (2007 г.). Текущий состав: José Madero (Pepe) - вокал, гитара, синтезатор, клавишные (с 1996 г.) Arturo Arredondo (Arthur/R2D2) - гитара, вокал (с 2005 г.) Ricardo Treviño (Rix) - бас-гитара, бэк-вокал (с 1996 г.) Jorge Vázquez (Kross) - барабаны, перкуссия (с 1997 г.) Скрыть...
Популярные аккорды Panda:
алфавиту | просмотрам | случайно
  • Principio
    
    --------------------e
    --4024-40245424424--b
    --------------------g
    --------------------d
    --------------------a
    --------------------e
    
    Guitarra 1
    B F# G# Em
    
    --------------------e
    --------------------b
    --4-----------------g
    --4-4--6---2--------d
    --2-4--6---2--------a
    ----2--4---0--------e
    
    Guitarra…
  • Afinacion: (EADGBE)
    
    
    Intro:
    |---9------9h8----8---11h8----9h8---8-|3
    |------9------------------------------|V
    |-8------8------8---8------8------8---|E
    |-------------------------------------|C
    |-------------------------------------|E
    |-------------------------------------|S
    
    
    Despues:
    
    Guitarra…
  • Intro
    
    Les voy a contar la historia . . . .
    
    eI---------------
    BI---------------
    GI-6---6---6---6-
    DI-6---6---6---6-
    AI-4---4---4---4-
    EI---------------
    
     - - - - - - - - - - - - - - - - - - - - -…
  • Verso:
    
    Guitarra 1
    e--------------------------------------------
    b--------------------------------------------
    g--777-----------7/9-7-----------------------
    D--777--555--999-7/9-7-----------------------
    A--555--555--999-5/7-5-----------------------
    E-------333--777-----------------------------
    
    e---------------------------------------
    b---------------------------------------
    g--777----------------------------------
    D--777--555--999--777-------------------
    A--555--555--999--777-------------------
    E-------333--777--555-------------------
    
    
    Coro
    e-----------------------------------------------
    b-----------------------------------------------
    g------------------77-7-77--7-99-1111-1212------
    D--55-5-55-99-9-99-77-7-77--7-99-1111-1212------
    A--55-5-55-99-9-99-55-5-55--5-77-9-9--1010------
    E--33-3-33-77-7-77------------------------------
    
    
    la…
  • At The Begining: 
    
    E|--7-7-7-7-7-7---9-9-9-9-9-9-9-9---11-11-11-11-11-11-11---12-12-12-12------
    B|--------------------------------------------------------------------------
    G|--------------------------------------------------------------------------
    D|--------------------------------------------------------------------------
    A|--------------------------------------------------------------------------
    E|--------------------------------------------------------------------------
    
    E|--14-14-14-14-----11-14-11-------14----14-11-------14--…
  • a= GUITARRA 1
    b= GUITARRA 2
    
    
    #INTRO a# 2 VECES
    e------------------------------------------------------|
    B----------------------------------------7-7-7-7-6-----|
    G-----4-3-6-4-3-------3-------3---4-3-6------------6---|
    D---4-----------6-6-6---6-4-4---4----------------------|
    A------------------------------------------------------|
    E------------------------------------------------------|
    
    
    #INTRO…
  • Una guitarra se encuentra en Drop D.
    
    Intro:
    
    Gtr 1                
    
    eI----------------------------------
    BI----------------------------------
    GI-8-88--------------5-55-----------
    DI-8-88-5-6-8-88-----5-55-1-3-66-88-
    AI-6-66-----8-88-5-6-3-33-----66-88-
    EI----------6-66--------------44-66-
    
    
    Gtr…
  • INTRO:
    e--------------------------------------------------||
    B--------------------------------------------------||
    G---6-6-6-6-6-6-6-6--------------------------------||
    D---6-6-6-6-6-6-6-6-----4-4-4-4-----6-6-6-6--------||
    A---4-4-4-4-4-4-4-4-----4-4-4-4-----6-6-6-6--------||
    E-----------------------2-2-2-2-----4-4-4-4--------||
    
    (riff)
    e--------------------------------------------||------
    B-------6-------6-----------6-------7-6-4-6--||------
    G-----6---6---6---6-------6---6--------------||--6~--
    D---6-------6-----------4--------------------||------
    A--------------------------------------------||------
    E--------------------------------------------||------
    
    
    VERSO:
    
    (Bajo)
    la…
  • Intro Metalero:
    |----------------------------------------------------------------| 
    |----------------------------------------------------------------|
    |-66-99-3-4-3--66-99-3-4-3--66-99-3-4-3--66-99-3-4-3-------------|
    |-66-99-3-4-3--66-99-3-4-3--66-99-3-4-3--66-99-3-4-3-------------|
    |-44-77-1-2-1--44-77-1-2-1--44-77-1-2-1--44-77-1-2-1-------------|
    |-----------------------------------------------------SLIDE>>>>--|
    SE…
  • En el intro se usan los mismos acordes del verso
     
    Intro
    |-11--9-9--8-8--8-9-8---11--9-9--8-8--8-------|
    |---------------------------------------11----|
    |---------------------------------------------|
    |---------------------------------------------|
    |---------------------------------------------|
    |---------------------------------------------|
    
    
    |-11-9-9-8-8-8-9-8-----8-8--9-9--9-8----|
    |-------------------11------------------|
    |---------------------------------------|
    |---------------------------------------|
    |---------------------------------------|
    |---------------------------------------|
    
    
    Estos…
  • G|--------------------------------------------->
    D|----6---6-6----8---8-8----9---9-9----8---8-8->
    A|--------------------------------------------->
    E|-444-444-4--666-666-6--777-777-7--666-666-6-->
    
  • Principio: Hoooohhh....
    
    C# F# C# G# F#
    
    -----------------------
    -----------------------
    -6------6--------------
    -6--4---6---6---4------
    -4--4---4---6---4------
    ----2-------4---2------
    
    
    Verso: Te Conozco.....
    
    C# A# G#…
  • intro y verso
    asi es en todos los versos y en el solo de guitarra
    -----------------------------------------
    -----------------------------------------
    -------666-------------------------------
    ---44--666--888--999---------------------
    ---44--444--888--999---------------------
    ---22-------666--777---------------------
    
    
    coro
    -----------------------------------------
    -----------------------------------------
    -------66--88--666-----------------------
    ---44--66--88--666-----------------------
    ---44--44--66--444-----------------------
    ---22------------------------------------
    
    
    antes…
  • Intro: C Am F G  
     
     C                             Am  
    Que se siente vеrlоs caminar justо enfrente 
        F                       G  
    Excelencia соrроrаl, inteligencia cultural 
              C                       Am…
Наверх