Аккорды «Pantera»

Pantera
Pantera - популярная американская метал-группа из города Арлингтон, Техас, образованная в 1981 году. Несмотря на то, что изначально на группу влияли глэм-метал группы восьмидесятых, Pantera сменила своё музыкальное направление в конце 80-х в основном благодаря влиянию таких традиционно металлических групп как Slayer, Metallica, Megadeth и Black Sabbath. С этого времени коллектив стал одним из основных создателей грув-метала (также называемого «пост-трэш металом»). Как группа Pantera образовалась… Читать полностью... Pantera - популярная американская метал-группа из города Арлингтон, Техас, образованная в 1981 году. Несмотря на то, что изначально на группу влияли глэм-метал группы восьмидесятых, Pantera сменила своё музыкальное направление в конце 80-х в основном благодаря влиянию таких традиционно металлических групп как Slayer, Metallica, Megadeth и Black Sabbath. С этого времени коллектив стал одним из основных создателей грув-метала (также называемого «пост-трэш металом»). Как группа Pantera образовалась в 1981-м году, но в ее составе пока не было вокалиста и души коллектива Филипа Ансельмо (Philip Anselmo). До его прихода в 1988-м году они оставались не особо известной командой , хоть и выпустили несколько альбомов, которые, впрочем, не имели ничего общего с дальнейшей музыкой Panter'ы. В 1980-х годах группа играла в жанре глэм-рок. С приходом в группу Фила все изменилось коренным образом. Pantera стала играть в таком составе: Филип Ансельмо (Philip Anselmo) – вокал, Винни Пол (Vinnie Paul) – ударные, Даймбег Даррел (Dimebag Darrell) – гитара Рекс Браун (rex brown) – бас. Первый альбом в таком составе ребята выпустили в 1988м ("Power Metal") Второй альбом уже с новым, отличным от прошлого, звуком выпустили в 1990-м году под названием „Cowboys From Hell“. Этот диск произвел настоящий фурор в мире тяжелой музыки, и по сей день является, по мнению многих, лучшим альбомом Panter'ы. После этого группа стала одной из самых прославленных групп девяностых. „Cowboys“ записан в стиле энергичного хардкор-трэша с типичным для Ансельмо неописуемым вокалом. Хитами с этого диска сразу стали одноименная песня, а также „Primal Concrete Sledge“, „Cemetary Gates“, „Shattered“ и „Medicine Man“. В 1990-92 Pantera становится одним из пионеров нового жанра, получившего название грув-метал. В 1991-м году Pantera выступает в Москве на фестивале "Монстры рока" вместе с Металликой и AC/DC. С этого момента о Panter'e узнали и в России. В 1992-м году выходит мощнейший альбом „Vulgar Display Of Power“ с хитами „Mount For War“, „Walk“, „F**king Hostile“, „Rise“ и „Hollow“. Этот диск, записанный в духе чистого жизнерадостного хардкора, звучит намного тяжелее предыдущего. Группа набирает все больший успех и известность. 1994 год – выход следущего альбома „Far Beyond Driven“, который звучит так же тяжело, как и предыдущий, но немного уступает ему в плане мелодичности. Лучшие вещи – „Strength Beyond Strength“, „5 Minutes Alone“, „Good Friends And A Bottle Of Pills“, „Slaughtered“ и „Shedding Skin“. И вот наконец, в 1996-м выходит „The Great Southern Trendkill“. Сказать, что этот альбом классный, убойный, крутейший – значит не сказать ничего. Это самый тяжелый, энергичный, мелодичный и хардкорнейший альбом за все творчество Panter'ы. Этот альбом является лучшим за всю историю группы, а также лучше всех предыдущих и последующих, вместе взятых. Бессмысленно называть лучшие песни с этого диска, так как каждая из них – настоящее произведение. В 1997 году Pantera выпускает "живой" альбом, записанный с концерта. Называется „Official Live - 101 Proof“. В него входят вещи со всех предыдущих четырех альбомов, а также две новых песни: „Where You Come From“ и „I Can't Hide“. После долгого творческого перерыва Pantera выпускает в 2000-м году новый, и последний свой альбом „Reinventing The Steel“. Музыканты не изменили своему стилю и продолжают нести хардкор в народ. К хитам можно отнести „Revolution Is My Name“, We'll Grind That Axe For A Long Time“, „Uplift“ и „I'll Cast A Shadow“. В целом альбом уступает предыдущему по мелодичности и энергичности, что в принципе, можно было ожидать, так как мало кто верил, что музыканты смогут превзойти самих себя и сотворить что-то лучше или хотя бы такое же как „The Great ...“. Pantera прекратила активную деятельность в конце 2001 года после того, как ее состав покинул Фил Ансельмо. Из-за длительных конфликтов внутри группы Pantera официально распалась в 2003 году. В следующем году гитарист Pantera Даймбэг Даррелл был застрелен прямо на сцене во время выступления со своей новой группой Damageplan. Pantera добилась первого коммерческого успеха лишь спустя девять лет после образования, когда мейджор-лейбл Elektra Records выпустил их альбом „Cowboys from Hell“. После этого группа стала одной из самых прославленных групп девяностых. Несмотря на холодное отношение к первым четырём альбомам Pantera, критики хвалили стиль группы в девяностых. Джейсон Бирчмейер из All Music Guide считает группу Pantera «лучшей металл-группой девяностых и … одной из лучших и самых влиятельных металл-групп всех времён». Группа заняла 45 место в списке «100 величайших исполнителей тяжёлого рока» согласно VH1 и 5 место в списке MTV «10 лучших групп тяжёлого метала всех времён». -=Skel=- Скрыть...
Популярные аккорды Pantera:
алфавиту | просмотрам | случайно
  • Tuning = Drop D
    
    ------------------------------
    ------------------------------
    ------------------------------
    ------------------------8-----
    ------------------------8-----
    --0--0--1b---0-------0--8-----
    
    ------------------------------
    ------------------------------
    ------------------------------
    ------------------------6-----
    ------------------------6-----
    --0--0--1b---0-------0--6-----
    
    -------------------------------
    -------------------------------
    -------------------------------
    ----------------------------6--
    ----------------------------4--
    --0--0--1b---0-------0---------
    
    -------------------------------------
    -------------------------------------
    -------------------------------------
    -------------------------------------
    -------------------------------------
    ----------1-----3------4-----3-----1-
    -0--0--0--1--0--3--0---4--0--3--0--1-
    
    
    Pre-chorus
    ---------------
    ---------------
    ---------------
    -5--6---7------
    -3--6---7------
    ----6---7------
    
    A…
  • Tuning: Standard (G, D, A, E)
    
    legend
    -------
    6p4  - Pull Off
    4h6  - Hammer on
    /    - Slide
    ~    - Ring Note
    0.   - Staccato
    
    Intro (to bass drum beat)
    |G|-----------------------------------------------| Note: To get the…
  • Note lengths are written below the measures :
       w - whole note
       h - half note
       q - quarter note
       e - eight note
       s - sixteenth note
       t - thirty-second note
    
     Rest are noted as capitalized note lengths ie:
       W…
  • Tuning – Eb
    v = vibrato            / = slide up or down        f = bend full step
    h = half step bend     q = quarter step bend        h = hammer on
    p = pull off           () = sustain the note
    
    Intro: moderate rock = 102…
  • Tuning: Drop D Tuning (G,D,A,D)
    note: DEAD NOTES CAN BE USED AS OPEN D'S IF YOU WANNA ADD BOOST OR RESTS IF 
    YOUR TIRED, ps - working on Hollow as you read this
    
    3h5 = hammer on
    3p0 = pull off
    ~   = let note ring
    x   = dead…
  • Tune down 1/2 step (low to high: Eb, Ab, Db, Gb, Bb, Eb)
    
    INTRO              Asus2 (Fill1)       E5                Dmaj7 (Fill2)         
    E-|---------------------|-----------------|-----------------|------0----------|
    B-|------------2--------|------0---0------|------0---0------|----2-----2------|
    G-|----------2----2-----|----4-------4----|----4-------4----|--4----------4---|
    D-|--------2------------|--2--------------|--2------------0-|-----------------|
    A-|------4-----------0--|-----------------|-----------------|-----------------|
    E-|----2----------------|---------------0-|-----------------|-----------------|…
  • ------------------------------------------------------------------------------
    ------------------------------------------------------------------------------
    -9--------3-7-6----3-7----------------------3-7-6---------------3-7-6---------
    -9--------------3------/5----------------4--------3-------------------4-4b----
    -7------------------------------4--------------------5--------4---------------
    -0------------------------3-7-6----3-7-6----------------3-7-6--------------3--…
  • tune to
    6-G
    5-G
    4-C
    *tune 6 one octave lower than 5
    these are the main riffs of the song.
    
    ------|---------------------------------------------|-------------------------
    ------|---------------------------------------------|-------------------------
    ------|---------------------------------------------|-------------------------
    ------|---------------------------------------------|-------------------------
    ------|-3------3--------3--------3------------------|-------------------------
    -15--|----5b------5b-------5b-------5b--3---0------|-------------------------…
  • NORMAL TUNING
    
    PH=PINCH HARMONICS
    
    p=PULL-OFF
    /=SLIDE UP
    =SLIDE DOWN
    ~=VIBRATO
    .=PALM MUTE
    
    
    |----------------------------------------|
    |----------------------------------------|
    |----------------------------------------|
    |----------4------------------4----------|
    |----4--3-----2--0------4--3-----2--0----|
    |-2------------------2-------------------|
    
    
    |----------------------------------------|
    |----------------------------------------|
    |----------------------------------------|
    |---4--------------4--------4------------|
    |------4--3--2--0-----4--3-----4--3------|
    |----------------------------------------|…
  • Bass Tab
    
    *  =  mute
    / and  =slide
    ^ = bend note
    
    i Am ThE bAsS kInG
    
    
    INTRO
    g---------------------------------------------------
    d------------2-2----------------------2-2-----------
    a--------2-3-----3-2--------------2-3-----3-2-------
    e--0-0-3-------------3------0-0-3-------------3-----
    							play…
  • Tune down one whole step (DGCFAD)
    
    -Songflow-
    Intro 1 4x
    Intro 2 
    Riff 1
    Riff 2
    Intro 1 4x
    Intro 2 w/o slide
    Riff 1
    Riff 2
    Chorus 9x
    Intro 1 4x
    Intro 2 w/o slide
    Riff 1
    Riff 2
    Fill 1
    Bridge 7x
    Intro 2 w/o slide
    Riff 1
    Chorus…
  • Drop D Tuning
    Intro
    
     |------------------------------------------------------------|
     |------------------------------------------------------------|
     |------------------------------------------------------------|…
  • Bend-b
    Hammer on-h
    pull off-p
    slide up-/
    slide down
    palm mute-p.m.
    accents->
    rest: whole-w
          half-h
          quarter-q
          eighth-e
          sixteenth-s    
    
    
    All grts. tuned down approx. 1 1/2 steps
    6-C#  3-E
    5-F#  2-G#
    4-B…
  • tune down 1 1/2 steps
    
    
    *VERSE*
    Repeat a whole bunch
    ||----------------------------2--|-----------------------2--||
    ||----------------------------2--|-----------------------2--||
    ||----------------------------2--|-----------------------2--||
    ||--4-4b--4--4--4--4--4-------4--|--4-4b--4--4--4--4--4--4--||
    ||-----------------------4-------|-----------------------4--||
    ||-----------------------2-------|-----------------------2--||
    
    
    *CHORUS*
    ||------------------------|-----------------------------|
    ||------------------------|-----------------------------|
    ||------------------------|--------------------0--------|
    ||----------2--4b-----(4)-|----------2-2-(2)-----2-(2)r-|
    ||--------2---------------|--------2--------------------|
    ||-0--2/4-----------------|-0--2/4----------------------|
    
    |------------------------|-----------------------------||
    |------------------------|-----------------------------||
    |------------------------|-----------------------------||
    |----------2--4b-----(4)-|----------2-2-(2)-------(2)r-||
    |--------2---------------|--------2--------------------||
    |-0--2/4-----------------|-0--2/4----------------------||
    
    
    *BRIDGE*
    Gtr.…
  • Tune down 12 a step
    -slide up
    /-slide down
    p-pull off
    h-hammer on
    b-bend
    ph-pitch harmonics
    
    riff1
    the start after drum beats
    ---------------------------------------------------------]
    ---------------------------------------------------------]
    ---------------------------------------------------------]
    ---------------------------------------------------------]
    ---------------------------------------------------------]
    5p0-2p0-85-0-5p0-2p0-85-0-5p0-2p0-85-0-2p00-8p00-5p0-----]
    
    riff2
    --------------------------------------------------------]
    --------------------------------------------------------]
    --------------------------------------------------------]
    --------------------------------------------------------]
    --------------------------------------------------------]
    5p0-2p0-85-0-5p0-2p0-85-0-5p0-2p0-85-0-5p00-5p00-5p0----]
    
    riff3
    uhhhhhhhh!
    ------------------------
    ------------------------
    ------------------------
    ------------------------
    -73--------------------
    -51--------------------
    
    riff4
    ------------------------
    ------------------------
    ------------------------
    ------------------------
    -5-4-3-xxxxx--5-6-7-----
    -3-2-1-xxxxx--3-4-5-----
    
    chorus
    UPLIFT!
    -----------------------------
    -----------------------------
    -----------------------------
    -2-2-x-x---------------------
    -2-2-x-x-3/4-x-x-4/5-x-x-5/6-
    -0-0-x-x-1/2-x-x-2/3-x-x-3/4-
    
    chorus…
  • [] = A.H.
    *  = Whammy Bar Stuff
    r  = Relece
    b  = Bend
    .  = Palm Mute
    
    **TUNE DOWN 1 1/2 STEPS**
    
    Fig. 1                                                        End fig. 1
    |-----------------|-----------------|-----------------|-----------------|
    |-----------------|-----------------|-----------------|-----------------|
    |-----------------|-----------------|-----------------|-----------------|
    |-----------------|-----------------|-----------------|-----------------|
    |-----------------|-----------------|-----------------|-----------------|
    |-0-0-0-0-0-0-0-0-|-0-0-0-0-0-0-0-0-|-0-0-0-0-0-0-0-0-|-0-0-0-0-0-0-0-0-|…
  • Strings: E ,A ,D ,G 
    
    R=Rest
    H=Hammer-on
    P=Pulling-off
    ====================
    
    |   w  w  w  w  w  w  w  w  w  w
    G ------------6H8----------------
    D -------6H8------------6H8P6----     AND BACK TO THE BEGINNING.
    A --6R-------------4R-----------9R
    E…
  • BASS
    
    Intro
    F---------|-------|----------------------------------------|
    C---------|-------|----------------------------------------|
    G---------|-------|----------------------------------------|
    D-12-----|-5/12-|-5/12----------------------------------|
    A---------|-------|--------------3----(3)--3---3--3--3--3-|
    
    
    F----------------------------|
    C----------------------------|
    G----------------------------|
    D-0------0--------0--3-----1-|
    A-------------------------3--|
    
    
    F---------------------------------------|---------------------------------|
    C---------------------------------------|---------------------------------|
    G---------------------------------------|---------------------------------|
    D-0-----(0)-----8--7--0---(0)--3-------|-0----5/12--(12)--0--(0)--3---1-|
    A-------------------------------------3-|-----------------------------3---|
    
    
    F-------------------------|-----------------------------|
    C-------------------------|-----------------------------|
    G-7-7-7-7-7-7-7-7-7-7-7-7-|-7--5----7----5--------------|
    D-------------------------|-------7----7----7-6-5-3-5-3-|
    A-------------------------|-----------------------------|
    
    
    F-----------------------|
    C-----------------------|
    G-----------------------|
    D-0---0---0---0---0---0-|
    A-----------------------|
    
    
    
    F-------------------------------|-------------|
    C---------5--------------5------|-------------|
    G-7--5------7--5--7--5-----7--5-|-------------|
    D------7---------------7--------|-------------|
    A-------------------------------|-1---4--(4)-|
    
    
    Verse
    Sixty-eight...…
  • Tuning: Standard (alternative is drop D with a capo on 2nd fret but you have
    to shift the notes a little, it's easier with drop D but its more challenging in standard)
    
    Intro/Pre-Chorus
      pm........   .................
    |---------------------------------------------|
    |---------------------------------------------|
    |-------------4-------------------4---4---4---|
    |-------------4-------------------4---4---4---|
    |-0-1-2-2-2-2-2-2-2-0-1-2-2-2-2-2-2---2---2---|
    |---------------------------------------------|
    
    Chorus…
  • 2x
    E||--------------------||------------------------------------||
    B||--------------------||----------------------------------- ||
    G||--------------------||*----------------------------------*||
    D||--x-x-x-------------||*----------------------------------*||
    A||--x-x-x-------------||------------------------------------||
    E||--x-x-x-0-0-0-0-0-0-||---0-0-0-0-0-0-0-0-0-0-0-0-0-0-0-0--||…
  • Tuning: Standard (E A D G B E) 
    E|---------------------------------------------------------------------------||
    B|---------------------------------------------------------------------------||
    G|---------9---------9---------10---------10---------------------------------------||
    D|---------9---------9---------10---------10---------------------------------------||
    A|---------7---------7---------7----------7--------------------------------------||
    E|-0-0-0-0---0-0-0-0---0-0-0-0----0-0-0-0----------------------------------------------------||
    E|---------------------------------------------------------------------------||
    B|---------------------------------------------------------------------------||
    G|---------------------------------------------------------------------------||
    D|---------------------------------------------------------------------------||
    A|--------------10-9-7-9-7---------------------------------------------------------||
    E|-8-7-8-10-8-7------------10---------------------------------------------------------||…
  • Triplet feel                End triplet feel
    1||--------------------------||-----------------|-------------------------||
    2||--------------------------||-----------------|-------------------------||
    3||--------------------------||-----------------|-------------------------||
    4||--------------------------||-9-7-9-----2--0--|-2-----------------------||
    5||-444444444444444444444444-||-7-5-7-----2--0--|-2-------22-2-2-2-2-22-2-||
    6||--------------------------||-----------0-----|-0-------00-0-0-0-0-00-0-||…
  • Key:~=Ring Mod. p.m.=Palm Mute p=pull off h=hammer on b=bend
    
    Tuning:DADGBe
    
    Intro
    
    e----------------------------------------------------------------------|
    B----------------------------------------------------------------------|
    G----------------------------------------------------------------------|
    D---3-3-3-3-3-3-3-3-3-3-3-3-3-3-3-3-3----------------------------------|
    A---3-3-3-3-3-3-3-3-3-3-3-3-3-3-3-3-3----------------------------------|
    D---3-3-3-3-3-3-3-3-3-3-3-3-3-3-3-3-3----------------------------------|
    
    Main…
  • Note lengths are written below the measures :
       w - whole note
       h - half note
       q - quarter note
       e - eight note
       s - sixteenth note
       t - thirty-second note
    
     Rest are noted as capitalized note lengths ie:
       W…
  • Key
      h - hammer on
      p - pull off
      b - bend 
      r - release bend
      x - muted note (or Rake)
      / - slide up
       - slide down
      ~ - vibrato              T
      T - right hand tap (eg. 10)
      ^ - Harmonic (eg. ^12)
      > - Tremolo…
  • tablature
    explanation:
    palm mute:     pm.....
    bend:          ^
    slide:         /  (toward headstock)
    slide:         // (toward bridge)
    dead note:     x
    hammer on:     h
    pull off:      p
    pinch harmonic ()
    
    intro
    e[---------------------------------------
    B[---------------------------------------
    G[---------------------------------------
    D[-2-2-2-2-2-2-2-2-2-2--2--2---2---2----2-
    A[-2-2-2-2-2-2-2-2-2-2--2--2---2---2----2-
    E[-0-0-0-0-0-0-0-0-0-0--0--0---0---0----0-…
  • G||----------------------|--------------------|--------------------|
       D||o---------------------|--------------------|--------------------|
       A||o--5----------------5/|/7----------------5/|/7----------------5/|
       E||---3-5-55-5-5-55-55-3/|/5-5-55-5-5-55-55-3/|/5-5-55-5-5-55-55-3/|…
  • main riff                                                  
    palm muting
    e---------------------------------------------------
    b------=-------------------------------------------
    g--------------------------------------------------
    d--------------------------------------------------
    a--------------------------------------------------
    e-0--0-0-6-0-3-00--0-0-6-0-3-0-0--0-6-0-3-00--00-1-0-4
    
    
    still…
  • Legend
    ------
    
     h  = hammer-on
     p  = pull-off
     ^  = bend (number of semi-tones above)
     /  = slide up/down
     ~  = vibrato
     w  = with whammy bar (number of semi-tones above)
      = Natural harmonic
    
    
       Acoustic Intro (Also before…
  • Tune Down 1 Whole Step
    
    Intro                       Verse 1+3
                                Riff A- - - - - - - - - - - - - - - - - - - - -|
    -6*b----------------------||--6*b---------------------------6*b---6*b---6*b-|-
    -6*b----------------------||--6*b---------------------------6*b---6*b---6*b-|-
    --------------------------||*-----------------------------------------------|-
    --------------------------||*-----------------------------------------------|-
    --------------------------||------------------------------------------------|-
    --------------------------||------0-0-0-0-0-0-0-0-0-0-0-0-0-----0-----0-----|-…
  • Note lengths are written below the measures :
       w - whole note
       h - half note
       q - quarter note
       e - eight note
       s - sixteenth note
       t - thirty-second note
    
     Rest are noted as capitalized note lengths ie:
       W…
  • Standard tunning
    
    -|------------|-----------|-----------|-----------|---------------------------
    -|------------|-----------|-----------|-----------|---------------------------
    -|------------|-----------|-----------|-----------|---------------------------
    -|------------|-----------|-----------|-----------|---------------------------
    -|------7-5-7-|-----7-5-7-|-----7-5-7-|-----------|---------------------------
    -|-0--0-------|-0-0-------|-0-0-------|-0-0-3-5-3-|---------------------------…
  • . = Palm Mute 
    x = Mute 
    * = Whammy Bar stuff 
    h = Hammer On 
    p = Pull Off 
    b = Bend 
    r = Release (bend) 
     
    **TUNE DOWN 1 1/2 STEPS** 
     
    Intro After Drums 
    |Play 3 times-------------| 
    ||----------------|------||--------------------------------------|…
  • Intro
    ------------------------------------------------------
    ------------------------------------------------------
    --5-5-5-5-5-5-5-5-5-5-5-5-5-5-------------------------
    ------------------------------6-6-6-6-6-6-6-6-3-3-1-1-
    
    ------------------------
    ------------------------
    ------------------------
    -3-3-3-3-3-3-3-3--1-2-3-
    
    ------------------------------------------------------------------------
    ------------------------------------------------------------------------
    -3-3-3-3-3-3-0-0-0-0-0-0-3-3-3-3-3-3-------------3-3-3-3-3-3-0-0-0-0-0-0
    -------------------------------------3-3-3-2-2-2------------------------
    
    ----------------
    ----------------
    ----------------
    -10-9-8-7-6-5---
    
    ----------------------
    ----------------------
    ----------------------
    -5---5--5--5--5--5--5-…
  • Tune all gtrs. down on whole step
    Moderate metal d=108.
    
    Intro:
    ~~~~~~~~~~~~~~~~                  ~~~~~~~~~~
    |---------------------------|----------------------------|
    |---------------------------|----------------------------|
    |---------------------------|----------------------------|
    |---------------------------|----------------------------|
    |-------0-3-5---------------|-5-3-0-----------7----------|
    |-0-3-6---------------------|-------6-5-3-0--------------|
    
    ~~~~~~~~~~…
  • Tuning: G, D, Ab, Eb (Drop A and E to flats)
    
    Legend
    -------
    8b  -  Bend Note
    ~   -  Let Note Ring
    (3) -  Ghost Note
    /   -  Slide up
    1h3 -  Hammer On
    x   -  Dead Note
    8bp6b - bend 8 pull off on 6 and bend at same time (tough!)
    
    Ballad…
  • Tune DOWN 1 1/2 steps
    
    = Bend And Do stuff... Listen to cd...
    b = Bend
    . = Palm Mute (Right hand)
    
    *INTRO*
    |-------------------|-------------------|-------------------|-------------------|
    |-------------------|-------------------|-------------------|-------------------|
    |-------------------|-------------------|-------------------|---2b--0-2-0-------|
    |-------------------|-------------------|-------------------|-------------2-----|
    |-------------------|-------------------|-------------------|-------------------|
    |-1-0----0-1-0----0-|-1-0----0-1-0----0-|-1-0----0-1-0----0-|-0--------------5b-|…
  • Intro			  Verse
    D-----------------------|--------------------------------------------|
    A-----------------------|--------------------------------------------|
    F-----------------------|--------------------------------------------|
    C-----------------------|--------------------------------------------|
    G-----------------------|--------------------------------------------|
    D-2-3-1-2-0--2-3-1-2-0--|--3-5-2-3-0-3-2-0---------------------------|…
  • Dropped C tuning
    
    Riff A
    A |-------------------------------|                |-----------------------|
    F |----------10---------7-----7---| Play 3 times   |----------8^v^v^-------|
    C |----------10---------7-----7---|  then…
  • Intro                             1,2.___________  3.___________
    G|--------------------------------|-------------|---------------|
    D|:-------------------------------|------------:|---------------|
    A|:----------------3-3------------|------------:|---------------|
    E|--5-5--1-1--5-5-------5-5--1-1--|--5/4/3/2/1--|--5/6-5/6-5/6--|
    
    Verse…
  • Legend
    ------
    
     h  = hammer-on
     p  = pull-off
     /  = slide up/down
     ~  = vibrato
    N.H = Natural Harmonic
    
    
    Dropped D Tuning (D,A,D,G,B,E)
    
       Intro and chorus
    1||-----------------|-----------------||-----------------|-----------------||
    2||-----------------|-----------------||-----------------|-----------------||
    3||-----------------|-------___N.H___-||-----------------|-----------------||
    4||-----------------|-------5-5-5-5-5-||-----------------|-----------------||
    5||-0-0-0-0-0-0-0-2-|---3-------------||-------2p0-3-----|-----2p0-3-------||
    6||-0-0-0-0-0-0-0-2-|---3-------------||-0-2-3---------0-|-2-3-------------||…
  • . = Palm Mute
    b = Bend
    r = Realese Bend
    h = Hammer On
    p = Pull Off
    * = Whammy Bar Stuff
    []= Harmonic
    
    
    *** DROP D TUNING ***
    6=D  3=G
    5=A  2=B
    4=D  1=E
    
    12 string acoustic
    |Riff A-------------------------|Gtr. 2 w/Riff A
    ||-----------------------------||----------------------------------------3-|
    ||-----------------------------||-------------3---------------3-----3----3-|
    ||-----------------------------||-9/10---7/9-----5/7-----3/5-----3----3----|
    ||----3/5-3--2h3-2-----0-----0-||------------------------------------------|
    ||-----------------0h1---1/3---||------------------------------------------|
    ||-0---------------------------||------------------------------------------|
    
    *VERSE*
    Fig.…
  • listen for strum patterns and harmonic squeal timing.
    Standard tuning transposed 1 and a half steps down
    (C# F# B E G# C#)
    h-hold 
    
    ------------------------------------------------------------------------------
    -8--10---11-11-11-11-11-11----8--10-10-10-10-10-10----------------------------
    -0---0----0--0--0--0--0--0----0---0--0--0--0--0--0----------------------------
    -0---0----0--0--0--0--0--0----0---0--0--0--0--0--0----------------------------
    ------------------------------------------------------------------------------
    ------------------------------------------------------------------------------…
  • Note lengths are written below the measures :
       w - whole note
       h - half note
       q - quarter note
       e - eight note
       s - sixteenth note
       t - thirty-second note
    
     Rest are noted as capitalized note lengths ie:
       W…
  • intro:
    ------------------------------------------------------------------
    ------------------------------------------------------------------
    ------------------------------------------------------------------
    ------------------------------------------------------------------
    -65-65-65-65-65-54-43-32------------------------------------------
    ---6--6--6--6--6--5--4--3-1-111-111-1-111-111-1-111-111-1-111-111-
    
    ------------------------------------------------------------------
    ------------------------------------------------------------------
    ------------------------------------------------------------------
    --------------------------------------------------------------5--
    -----------------32-23-32-23-32-------------------21-12-21-12-----
    -3313313313313331--4--4--4--4--41-3313313313313331--3--3--3--3----
    
    ------------------------------------------------------------------
    ------------------------------------------------------------------
    --------------------------------------------------------------6--
    ------------------------------------------------------------------
    -----------------32-23-32-23-32-------------------21-12-21-12-----
    -3313313313313331--4--4--4--4--41-3313313313313331--3--3--3--3----…
  • Drop D tuning
    
    ---------------|----------------------------------------|---------------------
    ---------------|----------------------------------------|---------------------
    ---------------|----------------------------------------|---------------------
    ---------------|-10--9--6-------------------------------|---------------------
    -x-x-x---x-x-x-|-8---7--8---8-7-6-----3-2-1----8-7-6----|---------------------
    -x-x-x---x-x-x-|------------8-7-6-----3-2-1----8-7-6----|---------------------…
  • riff a                            Play twice
    
    |--------------------------------------------------------------------|
    
    |--------------------------------------------------------------------|
    
    |--------------------------------------------------------------------|
    
    |-----10----10-----10-----10-----------------------------------------|
    
    |-----8------8------8------8-----------------------------------------|
    
    |-000----000----000----000-------------------------------------------|
    
    
    
    riff…
  • G ----------------------------------------------------------}
    D ----------------------------------------------------------}
    A-----------------------------------------------------------}
    E --0000--0--0000--0--0000--0--------------------}…
  • Tune down 1/2 step
    riff #1
    |---------------------------------------------------------------------------|
    |---------------------------------------------------------------------------|
    .-----------------------------5~--------------------------------------------|
    .-------------5-----7-5---5-7-----------------5---7-5--------2--------------|
    |---7-5---5-7---0(0)----7-----------7-5---5-7---0(0)-7-7-6-5-2--------------|
    |-0(0)--7-------------------------0-----7--------------5-4-3-0--------------|…
  • Tuned down a whole step (D,G,C,F)
    
               1,2,3-- 4-----------------------------     
    ||--------|-------|-------------------------------|
    ||o-------|------o|-------------------------------|
    ||o-------|------o|-------------------------------|
    ||--0--0--|--0----|--0--/12-12-12-12-12-12-12-12--|
    
    |---------------------------|-----|-----|-----|
    |---------------------------|-----|-----|-----|
    |---------------------------|--%--|--%--|--%--|
    |--5-0-0-3-0-0-0-0-0-0-0-0--|-----|-----|-----|
    
    |---------------------------|---------------------------|
    |---------------------------|---------------------------|
    |---------------------------|---------------------------|
    |--5-0-0-3-0-0-0-0-0-0-0-0--|--5-0-0-3-0-0-0-0-0-0-0-0--|
    
    |----------------------------|---------------------------|
    |----------------------------|---------------------------|
    |----------------------------|---------------------------|
    |--5-0-0-3-------------------|--5-0-0-5------------------|
    
    |---------------------------|---------------------------|
    |---------------------------|---------------------------|
    |---------------------------|---------------------------|
    |--5-0-0-3-0-0-0-0-0-0-0-0--|--0-0-0-0-0-0-0-0-0-0-0-0--|
    
    |----------------------------|---------------------------|
    |----------------------------|---------------------------|
    |----------------------------|---------------------------|
    |--5-0-0-3-------------------|--5-0-0-5------------------|
    
    |---------------------------|---------------------------|
    |---------------------------|---------------------------|
    |---------------------------|---------------------------|
    |--5-0-0-3-0-0-0-0-0-0-0-0--|--0-0-0-0-0-0-0-0-0-0-0-0--|
    
    |---------------------------|---------------------------|
    |---------------------------|---------------------------|
    |---------------------------|---------------------------|
    |--0-0-0-0-0-0-0-0-0-0-0-0--|--0-0-0-0-0-0-0------------|
    
    |-------------------------|-------------------------|
    |-------------------------|-------------------------|
    |-------------------------|-------------------------|
    |--0-0--0--0--0-0--0-2/3--|--0-0--0--0--0-0--0-2/3--|
    
    |-------------------------|--------------------------|
    |-------------------------|--------------------------|
    |-------------------------|--------------------------|
    |--0-0--0--0--0-0--0-2/3--|--0-0--0--0--0-0-0--0--0--|
    
    |---------------------------|---------------------------|
    |---------------------------|---------------------------|
    |---------------------------|---------------------------|
    |--0-0--0--0--0-/(12)-2/3--|--0-0--0--0--0-/(12)-2/3--|
    
    |---------------------------|--------------------------|
    |---------------------------|--------------------------|
    |---------------------------|--------------------------|
    |--0-0--0--0--0-/(12)-2/3--|--0-0--0--0--0-0----------|
    
    |---------------------------|---------------------------|
    |---------------------------|---------------------------|
    |---------------------------|---------------------------|
    |--5-0-0-3-0-0-0-0-0-0-0-0--|--5-0-0-3-0-0-0-0-0-0-0-0--|
    
    |----------------------------|---------------------------|
    |----------------------------|---------------------------|
    |----------------------------|---------------------------|
    |--5-0-0-3-------------------|--5-0-0-5------------------|
    
    |---------------------------|---------------------------|
    |---------------------------|---------------------------|
    |---------------------------|---------------------------|
    |--5-0-0-3-0-0-0-0-0-0-0-0--|--0-0-0-0-0-0-0-0-0-0-0-0--|
    
    |----------------------------|---------------------------|
    |----------------------------|---------------------------|
    |----------------------------|---------------------------|
    |--5-0-0-3-------------------|--5-0-0-5------------------|
    
    |---------------------------|---------------------------|
    |---------------------------|---------------------------|
    |---------------------------|---------------------------|
    |--5-0-0-3-0-0-0-0-0-0-0-0--|--0-0-0-0-0-0-0-0-0-0-0-0--|
    
    |---------------------------|---------------------------|
    |---------------------------|---------------------------|
    |---------------------------|---------------------------|
    |--0-0-0-0-0-0-0-0-0-0-0-0--|--0-0-0-0-0-0-0------------|
    
    |-------------------------|-------------------------|
    |-------------------------|-------------------------|
    |-------------------------|-------------------------|
    |--0-0--0--0--0-0--0-2/3--|--0-0--0--0--0-0--0-2/3--|
    
    |-------------------------|--------------------------|
    |-------------------------|--------------------------|
    |-------------------------|--------------------------|
    |--0-0--0--0--0-0--0-2/3--|--0-0--0--0--0-0-0--0--0--|
    
    |---------------------------|---------------------------|
    |---------------------------|---------------------------|
    |---------------------------|---------------------------|
    |--0-0--0--0--0-/(12)-2/3--|--0-0--0--0--0-/(12)-2/3--|
    
    |---------------------------|--------------------------|
    |---------------------------|--------------------------|
    |---------------------------|--------------------------|
    |--0-0--0--0--0-/(12)-2/3--|--0-0--0--0--0-0----------|
    
    |---------------------|------------------------|---------------------------|
    |---------------------|------------------------|---------------------------|
    |---------------------|------------------------|---------------------------|
    |-3-3-3-3-3-3-3-3-3-3-|-4-4-4-4-4-5-5-5-6-6-6--|--5-0-0-3-0-0-0-0-0-0-0-0--|
    
    |---------------------------|---------------------|------------------------|
    |---------------------------|---------------------|------------------------|
    |---------------------------|---------------------|------------------------|
    |--5-0-0-3-0-0-0-0-0-0-0-0--|-3-3-3-3-3-3-3-3-3-3-|-4-4-4-4-4-5-5-5-6-6-6--|
    
    |---------------------------|---------------------------|
    |---------------------------|---------------------------|
    |---------------------------|---------------------------|
    |--5-0-0-3-0-0-0-0-0-0-0-0--|--5-0-0-3-0-0-0-0-0-0-0-0--|
    
    |---------------------|------------------------|---------------------------|
    |---------------------|------------------------|---------------------------|
    |---------------------|------------------------|---------------------------|
    |-3-3-3-3-3-3-3-3-3-3-|-4-4-4-4-4-5-5-5-6-6-6--|--5-0-0-3-0-0-0-0-0-0-0-0--|
    
    |---------------------------|---------------------------|
    |---------------------------|---------------------------|
    |---------------------------|---------------------------|
    |--0-0-0-0-0-0-0-0-0-0-0-0--|--0-0-0-0-0-0-0-0-0-0-0-0--|
    
    |---------------------------|
    |---------------------------|
    |---------------------------|
    |--0-0-0-0-0-0-0------------|
    
    |-------------------------|-------------------------|
    |-------------------------|-------------------------|
    |-------------------------|-------------------------|
    |--0-0--0--0--0-0--0-2/3--|--0-0--0--0--0-0--0-2/3--|
    
    |-------------------------|--------------------------|
    |-------------------------|--------------------------|
    |-------------------------|--------------------------|
    |--0-0--0--0--0-0--0-2/3--|--0-0--0--0--0-0-0--0--0--|
    
    |---------------------------|---------------------------|
    |---------------------------|---------------------------|
    |---------------------------|---------------------------|
    |--0-0--0--0--0-/(12)-2/3--|--0-0--0--0--0-/(12)-2/3--|
    
    |---------------------------|--------------------------||
    |---------------------------|--------------------------||
    |---------------------------|--------------------------||
    |--0-0--0--0--0-/(12)-2/3--|--0-0--0--0--0-0----------||…
  • Tune down half step
    
    use bends where you need them
    riff1
    ---------------------------
    ---------------------------
    ---------------------------
    ---------------------------
    ---------------------------
    0-541-0-652-0-541-0-62-----
    riff2
    ----------------------------------------------
    ----------------------------------------------
    ----------------------------------------------
    2----2-2----2-2----2-2----2----2----2---------
    2-55-2-2-33-2-2-55-2-2-33-2-33-2-33-2---------
    0-33-0-0-11-0-0-33-0-0-11-0-11-0-11-0---------
    pm…
  • Tuning: Standard
    
       Intro and Chorus:
       |------------------------------------------------------------------|
       |------------------------------------------------------------------|
       |------------2-4-5-5-2-4-5----------------2-4-5-5-5-4-2---|…
  • E-------------------------------------------|
    B-------------------------------------------|
    G-------------------------------------------|
    D-------------------------------------------|
    A--2-------------------7----6---5-----------|
    E--0--3p0--3p0--3/5~~----5----5---3p0--3p0--|…
  • Tune guitar down 1 1/2 steps
              
              /-Slide up
              -Slide down
              .-palm mute
              ~-vibrato
              A.H.-Artificial Harmonics
              
              
              D|---------------------------------------------------------|…
  • Standard Tuning  E-A-D-G-B-E
    
    E--------------------------------------------
    B--------------------------------------------
    G--------------------------------------------
    D-9-9-7-9----5-54/54/54------9-9-7-9--127
    A-7-7-5-7-9--3-32/32/32-5----7-7-5-7--105
    E---------7----------------3-----------------…
  • Note lengths are written below the measures :
       w - whole note
       h - half note
       q - quarter note
       e - eight note
       s - sixteenth note
       t - thirty-second note
    
     Rest are noted as capitalized note lengths ie:
       W…
  • Legend
    ------
    
     h  = hammer-on
     p  = pull-off
     ^  = bend (number of semi-tones above)
     /  = slide up/down
     ~  = vibrato
     w  = with whammy bar
    
    
    1||------------------|-----------------|-----------------|-----------------|
    2||------------------|-----------------|-----------------|-----------------|
    3||------------------|-----------------|-----------------|-----------------|
    4||------------------|-----------------|-----------------|-----------------|
    5||------------------|-----------------|-5-4-2-------5-4-|-2-------4-5-4-2-|
    6||-2-4~--2-4~--2-4~-|---2-4~--2-5-4-2-|-------2~--------|---3~------------|
    
    
    1||------------------|-----------------|-----------------|------------------||
    2||------------------|-----------------|-----------------|------------------||
    3||------------------|-----------------|-6-4-------------|------------------||
    4||------------------|-----------------|-----6-4~----6-4-|--------A.H-------||
    5||------------------|-----------------|-----------------|-6-5~---b5r4-2-||
    6||-2-4~--2-4~--2-4~-|---2-4~--2-5-4-2-|-----------------|------------------||…
Наверх