Аккорды «Paolo Santos»

Популярные аккорды Paolo Santos:
алфавиту | просмотрам | случайно
  • INTRO:
    
    |--------0-------0-------------0--------------|
    |--2---------0-----0-----2---------0----------|
    |-----0---------------------0-----------------|(2x)
    |---------------------------------------------|
    |--2---------2-----------2---------2----------|
    |---------------------------------------------|
    
    |--------1--------1--------------1------------|
    |--3---------1-------1----3----------1--------|
    |-----1-----------------------1---------------|
    |---------------------------------------------|
    |--2---------2------------2----------2--------|
    |---------------------------------------------|
    
    |--------0-------0-------------0--------------|
    |--2---------0-----0-----2---------0----------|
    |-----0---------------------0-----------------|
    |---------------------------------------------|
    |--2---------2-----------2---------2----------|
    |---------------------------------------------|
    (too…
  • Standard Tuning:
    
       E   E2  B   B2  Bsus  C#m7 A Abm7 F#m7
    
    E--0---2---2---2----2-----4---0---4---2----
    B--0---5---4---2----5-----5---2---4---2----
    G--1---4---4---4----4-----4---2---4---2----
    D--2---2---4---4----4-----6---2---4---2----
    A--2---2---2---2----2-----4---0---6---4----
    E--0---0--------------------------4---2----…
  • Standard tuning: (EADGBE)
    Capo on 1st fret
    
    Intro:
    
    E--------------------------------0----0-----
    B--0--------0------3-------0----3----3-3--3--
    G-----2----0--------2-----0----0----2---2-2--
    D----0----2--------------2----2----0------0--
    A---2----2-------2------2----3---------------
    E--3----0-------3------0---------------------
    
    Verse:
    
    
    E--------------------------------0-------------
    B--0--------0------3-------0----3---0--------0-
    G-----2----0--------2-----0----0-------2----0--
    D----0----2--------------2----2-------0----2---…
  • Standard tuning: (EADGBE)
    capo on 2nd fret
    
    Intro:
    
    E----4--2--4-       --2----
    B-2--5--2--5-       --3--0-
    G-2--4--2--4-       --2--0-
    D-2--6--0--6-play 2x--4--0-
    A-0--4-----4-       --2--2-
    E------------       -----3-
    
    Verse:
    
    E----4--2--1--|----4--2----2-0---2--|-----------
    B-2--5--3--1--|-2--5--3--2-------2--|--2--5-----
    G-2--4--2--2--|-2--4--2--------2-2--|--2--4-----
    D-2--6--0--3--|-2--6--0--------0-0--|--2--2-----
    A-0--4-----3--|-0--4----------------|--0--------
    E----------1--|----------2----------|-----4-----
    
    Pre-chorus:
    
    E-2------2------|-2--------2-------
    B-3--2---3--2-2-|-3--2-2---3--2--0-
    G-2--2---2--2-2-|-2--2-2---2--2--0-
    D-0--2---0--2-2-|-0--2-2---0--2--0-
    A----0------4-0-|----4-0------4--2-
    E---------------|----------------3-
    
    Chorus:
    
    E----4--2--4-…
  • Standard Tuning: (EADGBE)
    original tune is one fret higher
    
    Intro:
    
    E---------------------------------
    B---------------------------------
    G--2---2--2---2--2---2--2---2-----
    D--2-2----1-1----0-0----1-1-------
    A--3------2------1------2---------
    E---------------------------------
    
    E------------------------------
    B------------------------------
    G--2---2--2---2--2-2-2-2-------
    D--2-2----1-1----0-0-0-2-------
    A--3------2------1-1-1-0-------
    E------------------------------
    
    Verse:
    Overtime…
  • INTRO:  C#/F-B/Eb-C#/F-B/Eb
            F#/C#-B-F#/C#-B 
    
    |---------------------------------------------|
    |--6----7----6----7----4----7-----4-----7-----|
    |--6--6---6-----6---6--4--4---4------4----4---|
    |---------------------------------------------|
    |--8---------8---------6----------6-----------|
    |---------------------------------------------|
    
    |---------------------------------------------|
    |--6----7-----6----7-----4-----7-----4------2-|
    |--6--6---6------6---6---4---4---4------4---3-|
    |---------------------------------------------|
    |--8----------8----------6-----------6------4-|
    |---------------------------------------------|
    
    |-------------------2-------------------------------|
    |--------2----------2--------------2-----------2----|
    |--3--------3--3-------3-----4-------4---4--------4-|
    |--4--4-----------4----------4--4-----------4-------|
    |--4-----------4----4--------2-----------2----------|
    |---------------------------------------------------|…
  • Standard tuning: (EADGBE)
    
    Intro:
    
    E-3-----3-----------------|-3-----3----------3-
    B-3-----3--1-1---0--------|-3-----3--1-1----0--
    G-0-----0-----------------|-0-----0------------
    D-2---0-------------------|-2---0---------2----
    A-3--2-----0-0------0-2-3-|-3-2------0-0-------
    E----------------3-3------|--------------------
    
    Verse:
    
    E-0--0--0--0--|-0--0--0--0---
    B-3--3--1--3--|-3--3--1--0---
    G-0--0--0--0--|-0--0--0--0---
    D-2--0--2--0--|-2--0--2--2---
    A-3--2--0--2--|-3--2--0--2---
    E----------3--|----------0---
    
    Refrain:
    
    E--1--0--0--…
  • Intro:
           (C)
    
    e--0-----0--------0--1-----0-------!
    B-----1-----3-----------------1--1-! (Repeat 3X)
    G----------------------------------!
    D-----------------------3--------3-!
    A--3-----------3-------------------!
    E----------------------------------!
    
    Verse:…
  • Tuning: Standard
    
    *Walang Capo na naman po eto, for non-capo users talaga...
    
    Take Me
    
        Asus2	Asus	E7	Bm7	C#m7	DM7	CM7  C#m7add5
    
    e|---0------------0------0-------2-------4-------5-------3----4----|
    B|---0------------3------0-------3-------5-------7-------5----5----|
    G|---2------------2------1-------2-------4-------6-------4----4----|
    D|---2------------2--------------4-------6-------7-------5----6----|
    A|---0------------0--------------2-------4-------5-------3----4----|
    E|------------------------------------------------------------4----|
    
    Intro:…
  • standard tuning: (EADGBE)
    
    Intro:
    
    E-5------------------------------------
    B-5----3---3----3--3---1--1---0-1-3----
    G-5------------------------------------
    D-5----2---2----0--0---2--2------------play 2x
    A-5---3---3----2--2---0--0----2-2-2----
    E----------------------------3--3-3----
    
    Verse:
    
    E-5------------------------------------
    B-5----3---3----3--3---1--1---0-1-3----
    G-5------------------------------------
    D-5----2---2----0--0---2--2------------
    A-5---3---3----2--2---0--0----2-2-2----
    E----------------------------3--3-3----
    
    Chorus:
    
    E-5------------------------------------
    B-5----3---3----3--3---1--1---0-1-3----
    G-5------------------------------------
    D-5----2---2----0--0---2--2------------
    A-5---3---3----2--2---0--0----2-2-2----
    E----------------------------3--3-3----…
  • standard tuning: (EADGBE)
    
    Intro:
    
    E----------------|---3-3----0---|
    B---3-3-3----2-4-|---3-3----3-0-|
    G---4-4-0----2-2-|------------0-|
    D----------------|--------------|
    A--------------2-|--------------|
    E-3---3----2-----|-0---0--3---3-|
    
    E--3--0-----2h3-|---3-3----3-3-
    B--3--0-----3-3-|---1-1----3-3-
    G---------------|--------------
    D---------------|--------0-----
    A-3--3---32-----|-0---0--------
    E-------------0-|--------------
    
    Verse:
    
    E----------------|---3-3----0---|
    B---3-3-3----2-4-|---3-3----3-0-|
    G---4-4-0----2-2-|------------0-|
    D----------------|--------------|
    A--------------2-|--------------|
    E-3---3----2-----|-0---0--3---3-|
    
    E--3--0-----2h3-|---3-3----3-3-
    B--3--0-----3-3-|---1-1----3-3-
    G---------------|--------------
    D---------------|--------0-----
    A-3--3---32-----|-0---0--------
    E-------------0-|--------------
    
    Refrain:
    
    E---3-3--3-2---3-3-------|
    B---3-3--3-3---3-3---3-0-|
    G--------------------0-0-|
    D------------------------|
    A-3---3-2--2-------------|
    E-------------0--0--3--3-|
    
    E--3--0-----2h3-|---3-3----3-3-
    B--3--0-----3-3-|---1-1----3-3-
    G---------------|--------------
    D---------------|--------0-----
    A-3--3---32-----|-0---0--------
    E-------------0-|--------------
    
    Bridge:
    
    E-1--0-----|-1--0--3--3-----
    B-1--3--3--|-1--3--3----3---
    G-2--0--0--|-2--0--0--------
    D-3--0--2--|-3--0--2--------
    A-3--2--3--|-3--2--3--3-2---
    E-1--3-----|-1--3-----------
    
    E------------|-3--3-3--
    B-1-3--1-/3-|-3--3-3--
    G-0-0--0/0-|-0-------
    D-2-0--2/2-|-2--0-0--
    A-0-2--02/2-|-3-------
    E--------3---|---------…
  • F           G    Em     Am    G
    Another day   I call and never speak
    F           G   Am       G         D
    And you would say nothing's changed at all
    F          G    Em   Am       G
    And I can't feel  much hope for anything
    F…
  • Intro:
    F-G-C
    F-G-C-Am7
    F-G-C 2x
    
    
    Verse:
             F            G        C
    it's her hair and her eyes today 
              F           G     Am7
    that just simply take me away 
            F            G           C          Am7
    and…
  • Standard tuning: (EADGBE)
    
    Intro:
    
    E--2--2--0------|
    B--2--3--0--3-2-|
    G--2--2--0--0-0-|
    D--0--4--2--2-2-|
    A-----2--2--0-0-|
    E--------0------|
    
    Verse:
    
    E--2--2--0------|
    B--2--3--0--3-2-|
    G--2--2--0--0-0-|
    D--0--4--2--2-2-|
    A-----2--2--0-0-|
    E--------0------|
    
    Chorus:
    
    E--2--2--0------|
    B--2--3--0--3-2-|
    G--2--2--0--0-0-|
    D--0--4--2--2-2-|
    A-----2--2--0-0-|
    E--------0------|
    
    Verse:
    
    E--2--2--0------|--0-----2----2-----------|
    B--2--3--0--3-2-|--0--3--2---2------------|
    G--2--2--0--0-0-|--0--0--2--2-------------|
    D--0--4--2--2-2-|--2--0--0-0--------------|
    A-----2--2--0-0-|--2--2-------------------|
    E--------0------|--0--3-------------------|
    
    Verse:
    
    E--2--2--0------|--0-----2--2-|--0------------|
    B--2--3--0--3-2-|--0--3--2--3-|--0--3-2-------|
    G--2--2--0--0-0-|--0--0--2--2-|--0--0-0-------|
    D--0--4--2--2-2-|--2--0--0--4-|--2--2-2-------|
    A-----2--2--0-0-|--2--2-----2-|--2--0-0-------|
    E--------0------|--0--3-------|--0------------|…
  • Standard Tuning: (EADGBE)
    
    Intro / Chorus:
    (Strumming)
    
    E-------------|--------------------------|
    B--0--0--0--0-|--3--3--3--0--------------|
    G--2--2--2--2-|--2--2--2--2--------------|
    D--2--2--2--2-|--0-----4--0--------------|
    A--0----------|-----4--2--0--------------|
    E-----4--2--0-|-----------3--------------|
    
    E-------------|-------------|-------------------------------|
    B--0--0--0--0-|--3--3--3--2-|---------3-2-----------3-2-----|
    G--2--2--2--2-|--2--2--2--2-|----2------2-------2-----2-----|
    D--2--2--2--2-|--0-----4--4-|---0-----2--------0----2-------|
    A--0----------|-----4--2--2-|-------0--------------0--------|
    E-----4--2--0-|-------------|--3-------------3--------------|
    
    Verse:
    Long…
  • Intro:AM7-D9
    AM7		    D9
    Here comes the night
             AM7
    Once again
    	  D9
    I'll be feeling lonely
    Bm     C#m    D		E	  AM7		D9
    Oh, if only things could work out like you plan
    (do the same chords)
    Where can love be
    Tell…
  • INTRO:
    
    |----------------------------------------------------------|
    |------------------9-----9-----------2---------------------|
    |----8-8-8h9h8-8---8---8---8-------1-----1--6--6--5---5----|
    |--------9------9--9-9-------6---2-----2----6-6---6-6------|
    |------------------------------0---------------------------|
    |--9---------------7------------------------4-----4--------|
    
    |----------------------------------------------------------|
    |------------------9-----9------------0--------------------|
    |------8-8h9h8-8---8---8---8--------1-----1-6---6-5--------|
    |----9-9-9---------9-9-------6----2-----2---6-6---6--------|
    |-------------------------------0--------------------------|
    |--9---------------7------------------------4-----4--------|
    
    
    Stanza…
  • Tuning: Standard Tuning, capo on 1st fret for original key!all chords 
            are relative to capo.
    
    NOTE: yung original key nya is 1/2 step higher(G#)but i hear a lower key of 
    F open 6th string and it is very hard to…
  • intro:
    
      C9	      C7	   C9	      C7
    e|-------------------------------------------------------------------------|
    B|-------3----1-----1------3-----3----1-----1------------------------------|
    G|-----0--------3-3----------0-0--------3-3--------------------------------|
    D|---2---------------------------------------------------------------------|
    A|-3----------3------------3----------3------------------------------------|
    E|-------------------------------------------------------------------------|…
  • INTRO:
     
    |-2--------|-2--------|-2--------|-2--------|
    |-3---0--0-|-3---0----|-3---0----|-3---0----|
    |-0--------|-0------0-|-0------0-|-0------0-|
    |-0--------|----------|-0--------|----------|
    |----------|-3---3--3-|----------|-3---3--3-|
    |-3---3--3-|----------|-3---3--3-|----------|…
  • Tuning: Standard Tuning
    
    Intro: G#m-C#m7-AM7—(2X)
    |----------------------------|
    |-----4-5-5----------2-------|
    |-4---4-4-4------1-----------|
    |-6------------2-------------|
    |-------4----0---------------|
    |-4-4------------------------|
    
    |----------------------------|
    |--------5-5--------2--------|
    |-4-3-4--4-4------1----------|
    |-6-6-6---------2------------|
    |--------4----0--------------|
    |----------------------------|
    
    I.…
  • Intro: C#m7-C#m9-A-Bm9-B7sus-E----	(Do intro by plucking except E)
    
    I
    BўЄ F#m				Bm9
    For you I give a lifetime of stability
    	      E
    Anything you want of me 
       A9/F#
    Oh! Nothing is impossible 
    BўЄ F#m						Bm9 
    For you…
  • Note: EAD - Use your pullguard (hinlalaki)
          G - index
          B - middle (pang finger nyo)
          e - Anular (Ring)  
    
    Intro:
    -----
                                     
    e|--------0---------0------!-------------0----------0------0------------|
    B|-----0---------0------0--!---------0----------0------0-------0--------|
    G|---8---------8------8----!-------6----------6------6-------6----------|
    D|-------9--------9--------!-----------7----------7------7--------------|
    A|-------------------------!--------------------------------------------|
    E|-7---------7-------------!-7--5----------5----------------------------|
    
    
    
    e|-------0-----!Repeat…
  • Standard Tuning: (EADGBE)
    Capo on 2nd fret
    
    Intro:
    
    E-0--21-----------
    B-0--32--2-1-1----
    G-1--21--2-2-0---- play 2x
    D-2--43--2-2-2----
    A-2--21--0-0-0----
    E-0----------------
    
    Verse:
    Pakiramdam ko ay sumisigla...
    
    E-0--2----------
    B-0--3--2-1-1---
    G-1--2--2-2-0---…
  • Standard Tuning: (EADGBE)
    
    Intro:
    Making a fool of myself right here...
    
    E--2--4--2--5-
    B--2--5--3--5-
    G--2--4--2--4-
    D--0--6--4--2-
    A-----4--2----
    E-------------
    
    E-------4--2-2-2------------
    B-2-2---5--2h3p2--0---------
    G-2h4---4--2-2-2--2---------
    D-2-2---6--4-4-4--0---------
    A-0-0---4--2-2-2--0---------
    E-----------------3---------
    
    Verse:
    Been…
  • Standard tuning: (EADGBE)
    
    Verse:
    
    E----2--2--0-0-
    B-0--2--3--0-0-
    G-2--2--2--2-1-
    D-2--2--4--2-2-
    A-0--4--2--2-2-
    E----2-----0-0-
    
    Pre-Chorus:
    
    E-4--2-2--2--0-0--
    B-5--2-2--3--0-0--
    G-4--2-2--2--2-1--
    D-6--2-2--4--2-2--
    A-4--4-2--2--2-2--
    E----2-------0-0--
    
    Chorus:
    It's…
  • Intro: DM7--C#m7--CM7--A7sus-A7
           DM7--C#m7--CM7--A7sus
    
    
    Stanza 1 & 2:
    
    DM7--C#m7--Bm7--C#m7
    I can remeber...
    
    DM7--C#m7--Bm7--Em7-A7
    You made my life...
    
    DM7--C#m7--Bm7--C#m7
    And you put your arms...
    
    DM7--C#m7--Bm7--Em7-A7aug
    Bright…
  • Capo 4
    {#=string number - #=fret number}
    0     open string
    6 -------------
    5 -------------
    4 ------------- 
    3 -------------
    2 -------------
    1 -------------
    
    {5-2} {5-3} {5-5} {5-3} {5-2} {6-0} {Em} 
    {Em} There's no more…
  • Intro:  Em - x79987     Chords: Cadd9 - x32033
            E? - x77777             Em    - 022000
            Bm - x24434             Am    - x02210
            B? - x22222             G     - 320003
            Am - x02210…
  • standard tuning: (EADGBE)
    
    Intro:
    
    E-----------0-|----------------
    B---1-----0---|-0-0------------
    G-------2-----|-----1-2-2-1----
    D-----2-2-----|----------------
    A---2---------|-2-2---2-2------
    E-0-------0---|-----------0----
    
    Verse:
    
    E---------|…
  • Standard tuning: (EADGBE)
    
    Intro:
    
    E-----5---------4---4-
    B-2------2-3-5--5-5---
    G---2-----------------
    D--------------------- play 2x
    A-0------0------------
    E---------------0-----
    
    Verse:
    
    E----0-----0----2--1----
    B-0--0--0--2----3--3--2-…
  • standard tuning: (EADGBE)
    
    Intro:
    
    E------------
    B-6--2--6--2-
    G-6--3--6--3-
    D-6--4--6--4-
    A-4--4--4--4-
    E----2-----2-
    
    Verse:
    
    E----2--------
    B-7--2--6--4--
    G-6--3--6--5--
    D-8--4--6--6--play 2x
    A-6--4--4--6--
    E----2-----4--
    
    Chorus:
    
    E----1--2-----4-
    B-6--1--2--6--4-
    G-6--1--3--6--5-
    D-6--3--4--6--6-
    A-4--3--4--4--6-play…
  • Standard tuning: (EADGBE)
    
    Intro:
    
    E----------------       -------
    B----3-3-----3-3-       -------
    G--------------0-       ---2---
    D------0-----2---play 2x--4----
    A----2-----3-----       -5-----
    E--3-------------       -------
    
    Verse:
    
    E--3--3--3-33-|-3--3-|----------------------
    B--3--3--3-33-|-3--4-|---3-3-----3-3--------
    G--0--0--0-0-|-0--5-|-------------0----2---
    D--0--2--0-0-|-2--5-|-----0-----2-----4----…
  • Standard tuning: (EADGBE)
    
    Capo on 2nd fret
    
    Intro:
    Gtr. 1
    E--0--0--0----0--0--0-------
    B--3--0--3----3--0--3-------
    G--0--0--0----0--0--0-------
    D--2--0--4----2--0--4-------
    A--3--2--5----3--2--5-------
    E-----3--5-------3--5-------
    
    Gtr…
  • Intro acoustic guitar riff:
    ------------------------|---------------------------||
    -2---2-2-2---4--4--4--4-|-5---5-5-5---4--4--4--4--4-||
    ------------------------|---------------------------|| repeat
    ------------------------|---------------------------||
    ------------------------|---------------------------||
    ------------------------|---------------------------||
    {eot}
    
    I'm…
  • standard tuning: (EADGBE)
    capo on 1st fret
    
    Intro:
    
    E----0-3-----0-2------0-2---3-2-0-------|
    B---3-------3--------3---3--------------|
    G--2-------2--------2-------------------|
    D-0-------------------------------------|
    A--------2--------3---------------------|
    E---------------------------3-2-0-------|
    
    Verse:
    
    E-------0----------0----2--2-------------|
    B-0--2--3----0--2--3----2--3--3--2-------|
    G-0--2--2----0--2--2----2--2--0--2-------|
    D-2--2--0----2--2--0----2--4--0--2-------|
    A-2--0-------2--0-------4--2--2--0-0-----|
    E-0----------0----------2-----3------3-2-|
    
    E-------0----------0----2--2------------|
    B-0--2--3----0--2--3----2--3--2-3-2-0---|
    G-0--2--2----0--2--2----2--2--2-2-2-2---|
    D-2--2--0----2--2--0----2--4--2---------|
    A-2--0-------2--0-------4--2--0---------|
    E-0----------0----------2---------------|
    
    Chorus:
    
    E-------0----------3-2-0----------|
    B-3--2--3----3--2--3-----3--------|
    G-0--2--2----0--2--2--------------|
    D-0--2--0----0--2--0--------------|
    A-2--0-------2--0-----------------|
    E-3----------3--------------------|
    
    E---------------|
    B-3--2--2/3---2-|
    G-0--2--2/2---2-|
    D-0--2--2/4---2-|
    A-2--0--4/2---0-|
    E-3-----2/------|
    
    Bridge:
    
    E----0-2-0-|-------------0-2-0---|
    B---3------|-3--2--3--2--3-------|
    G--2-------|-2--2--0--2--2-------|
    D-0--------|-4--2--0--2--0-------|
    A----------|-2--4--2--0----------|
    E----------|----2--3-------------|
    
    E-----------------|
    B-3--2--2-2-3-2-0-|
    G-2--2--2-2-2-2-2-|
    D-4--2--2-2-------|
    A-2--4--0-0-------|
    E----2------------|
    
    Outro:
    
    E----0-3-----0-2------0-2---3-2-0-----------|
    B---3-------3--------3---3---------2sl/3----|
    G--2-------2--------2--------------2---2----|
    D-0--------------------------------0---0----|
    A--------2--------3-------------------------|
    E---------------------------3-2-0-----------|…
Наверх