Аккорды «Paradise Lost»

Paradise Lost
Будущие легенды Paradise Lost образовались в 1988 году в городе Галифакс, Великобритания. Молодые ребята: Ник Холмс (вокал), Грегор Макинтош (гитара), Аарон Аэди (гитара), Стив Эдмонсон (бас) и Мэтью Арчер (ударные) - организовали боевой состав. Название было взято из популярной поэмы английского поэта Джона Мильтона "Потерянный рай". Первые два «демо» назывались «Drown in Darkness» и «Frozen Illusion». С этими двумя релизами группа и попала в когти «Peaceville Records» к середине 1990… Читать полностью... Будущие легенды Paradise Lost образовались в 1988 году в городе Галифакс, Великобритания. Молодые ребята: Ник Холмс (вокал), Грегор Макинтош (гитара), Аарон Аэди (гитара), Стив Эдмонсон (бас) и Мэтью Арчер (ударные) - организовали боевой состав. Название было взято из популярной поэмы английского поэта Джона Мильтона "Потерянный рай". Первые два «демо» назывались «Drown in Darkness» и «Frozen Illusion». С этими двумя релизами группа и попала в когти «Peaceville Records» к середине 1990 года. Дебютная пластинка "Lost Paradise" задала основное направление на ближайшие десять лет творчества группы. Звучание «Парадайзовского» Doom-Death сводилось к гнетущему и тяжеловесному воспеванию страданий нашего общества. Второй альбом принёс долгожданную известность в металлической среде. "Gothic", был выпущен в 1991 году и оправдал все ожидания. Его давящая атмосфера, подчеркиваемая тяжеловесностью звучания, сочный рык Ника Холмса и плюс ко всему использование оркестровых проигрышей - все это выделило Paradise Lost из прочих групп направления Doom-Death. В песнях Paradise Lost проявилась неслыханная в экстремальной музыке мелодичность, в основном передаваемая гитарой Грега Макинтоша, основного композитора группы. Европейское турне прошло при бешеной поддержке фэнов, группой заинтерисовались серьёзные европейские лейблы . Сменив «Peaceville Records» на «Music For Nations» в 1992 году, англичане записали диск "Shades of God". На альбоме музыканты стремились не столько ковать одно и то же железо, сколько экспериментировали со звучанием. Как итог альбом был принят фэнами на ура и как и "Gothic" вошёл в «золотую» классику Paradise Lost. "As I Die" и "Pity The Sadness" и по сей день играются на концертах. В том же году был представлен широкой публике мини-диск "As I Die". Заглавная композиция стала хитом № 1 в альтернативных чартах, и диск моментально раскупили. В те годы, эту композицию не слышал лишь глухой или отчуждённый. Постоянная ротация на телеэкранах и радио рядом с Metallica и AC/DC сделала отличную рекламу группе в формате MTV. Так появилась самая известная песня группы Paradise Lost. И вот в 1993 году появилась "Icon". Нагруженная фирменной меланхолией "PL", стилистика альбома значительно изменилась став той самой поворотной точкой в карьере группы. Вокалист Ник Холмс перестал рычать своим незабываемым гроулом, и его манера стала напоминать Джеймса Хетфилда (Metallica), Грег Макинтош выпиливал еще более утонченные мелодии. Неудивительно, что вскоре им доверили возглавлять известнейший голландский фестиваль Dynamo Open Air, на котором Paradise Lost выступили перед 100 000 фэнов. В самом конце 1993-го Мэтью Арчера сменил Ли Моррис. Самая популярная работа вышла в 1995 году - легендарный "Draconian Times". Гибрид «Иконы» и её гнетущих готических хоралов с вкраплениями а-ля Metallica, сам альбом оказался самым популярным в карьере Paradise Lost, повторить этот успех группе было не суждено. Этот альбом и его неожиданный успех поставили команду перед выбором: продолжать в том же духе или сделать что-то абсолютно новое. Paradise Lost – ребята выбрали второй путь. В 1997 году Paradise Lost представили широкой общественности диск "One Second", отличавшийся уклоном в готик-рок в духе Sisters of Mercy и обогащенный клавишными и электронными сэмлами. «Усовершенствовать» саунд команде помогал известный шведский продюсер Сэнк, занимавшийся до этого Clawfinger. Новый диск стал поворотным в творчестве группы - именно с этих пор и повелось общепринятое разделение творчества Paradise Lost на "старое" и "новое", условно говоря "металлический" и "не металлический" периоды. Вслед за альбомом последовало глобальное турне, в ходе которого музыканты побывали и в России. Единственный концерт в Москве был фантастически принят публикой, Россия дождалась. В студийном "Host", выпущенный в 1999-м на «EMI», музыканты пошли еще дальше - альбом получил популярность среди любителей синти-попа и электро-рока и был совершенно непонят металлической аудиторией. На альбоме отчетливо слышны влияния групп т.н. "новой романтики" в лице The Smiths, Depeche Mode, New Order. Во время американского тура группа отыграла пару концертов с Вилле Валло из H.I.M. Впрочем, это не помешало поклонникам распевать хором самые известные песни: True belief, Forever failure и конечно As I Die по-прежнему исполнялись на концертах - тур получил единодушно хвалебные отзывы в прессе. Однако продажи альбома провалились. С новым продюсером John'ом Fryer'ом группа начала готовить абсолютно новый альбом. Джон Фраер до Paradise Lost занимался Nine Inch Nails и H.I.M. "Believe In Nothing", выпущенный в 2001 году также на EMI, отличался более тяжёлым звучанием и несколько напоминает звучание «One Second», впрочем, при сохранении наработок "Host". Свой следующий 9-й релиз Paradise Lost назвали "Symbol Of Life", на этот раз это был модерн-готик металл/рок, сдобренный индустриальными семплами. Ник Холмс, Грег Макинтош, Аарон Аэди, Стив Эдмонсон и Ли Моррис во главе с продюсером Рисом Фалбером (Fear Factory, Frontline Assembly), создали альбом наполненный взрывной энергией ранних релизов и сохранивший знакомую меланхоличную атмосферу поздних пластинок . В 2003 группа посетила Московский фестиваль «Rover Fest» выступив на одной сцене с Helloween, Masterplan и Арией. Десятую пластинку назвали нетривиально - "Paradise Lost", вышла она в 2005-м году и по звучанию явилась современным, "модным" вариантом "Draconian Times", а песня "All You Leave Behind" даже как будто перекочевала с альбома "Icon". Отдельные треки и особенно вокальные линии Холмса, впрочем, отчетливо напоминают, что "One second" по-прежнему жив в сердцах и головах музыкантов. В рамках тура в поддержку альбома группа 17 сентября 2005 года впервые посетила Киев, чем очень порадовала всех своих истинных поклонников. Одиннадцатый полноформатник "In Requiem" увидел свет в мае-июне 2007 года. Как это повелось исстари, отзывы фанатов были противоречивы и неоднозначны. Фанаты старых Paradise Lost с ностальгией вспоминали альбомы Gothic и Shades of God, фанаты позднего творчества не могли свыкнуться с довольно тяжелым звучанием нового альбома. Тем не менее, альбом стал логичным, хоть и заметно "потяжелевшим", продолжением Paradise Lost 2005 года. Темп замедлился, звучание в чем-то еще больше приблизилось к альбомам "Draconian Times" и "Icon". Вскоре после выхода пластинки, группа выпустила клип на песню The Enemy. В 2008 году Paradise Lost отметили 20-летие группы, в том числе дав несколько специальных концертов совместно с другими пионерами дум-метала — My Dying Bride и Anathema. Также Paradise Lost выпустили в этом году DVD под названием "The Anatomy of Melancholy". В августе 2008 года ударник Джеф Сингер объявил о своём решении покинуть группу в связи с тем, что музыкальная карьера стала для него обременительной и не позволяет уделять время общению с семьёй. Paradise Lost были даже вынуждены отменить тур по Южной Америке, однако в последний момент за барабаны согласился сесть Mark Heron из Oceansize и группа все же посетила южноамериканский континент с концертами. Новый альбом "Faith divides us - Death unites us" был записан зимой 2009 года под руководством продюсера Jens'a Bogren'a в студии в городке Orebro в Швеции. Релиз нового альбома назначен на 28 сентября 2009 года. Барабанные партии к пластинке записал шведский барабанщик Peter Damin. А через некоторое время после окончания записи была найдена и постоянная замена Джеффу Сингеру в лице ударника Adrian'a Erlandsson'a (At The Gates, Cradle of Filth, The Haunted). Скрыть...
Популярные аккорды Paradise Lost:
алфавиту | просмотрам | случайно
  • Tune Down 1 Step
    
    |---------------------------------|---------------------------------|
    |---------------------------------|---------------------------------|
    |---------------------------------|---------------------------------|
    |-9-9-9-9---------4-4-4-4-4-4-4-4-|-9-9-9-9---------5-5-5-5-5-5-5-5-|
    |-7-7-7-7-5-5-5-5-2-2-2-2-2-2-2-2-|-7-7-7-7-5-5-5-5-3-3-3-3-3-3-3-3-|
    |---------3-3-3-3-----------------|---------3-3-3-3-----------------|…
  • Tune down 1 step DGCFAD
    
    Note: I got tired of tabing this song and have not yet finished the acoustic
    intro or most of the solo.  If anyone feels like adding to this tab be my guest.
    
    -Acoustic Intro- 
    (Not finished yet)
    
    Guitar…
  • BASS TAB
     
    Dropped D tuning (D,A,D,G)
     
    Intro/Chorus
    G|-------------------|-------------------|
    D|-------------------|-------------------|
    A|-5-5-3h5-3h5-5h6p5-|-------------------|
    D|-------------------|-7-7-5h7-5h7-7h8p7-|…
  • Riff 1
    
    |------------14----------------------------------------|
    |------15-17----17--------15---------------------------|
    |---16--------------14-18------------------------------|Piano
    |------------------------------------------------------|
    |------------------------------------------------------|
    |------------------------------------------------------|
    
    Riff…
  • RIFF1
       guitar1
    d---------------------------------------------------------------------------------
    A---------------------------------------------------------------------------------
    F---------------------------------------------------------------------------------
    C-------------------------9-9-9-9-9-9-9-9-12-12-12-12-12-12-12-12-----------------
    G--9--9--9--9--9--9--9--9-7-7-7-7-7-7-7-7-10-10-10-10-10-10-10-10-7-7-7-7-7-7-7-7-
    D--7--7--7--7--7--7--7--7-----------------------------------------5-5-5-5-5-5-5-5-…
  • Intro 1:
    
    G:------------------------------------------------|
    D:------------------------------------------------|
    A:0-----------------------5-----------3--3--------|
    E:------------0-----------------------------3--3--|…
  • Riff A (Chorus):
    ----------------
    
    Rythem:
    
    ---|
    ---|
    ---|
    ---|
    |--5-4-----7---|
    |------7-5-----|
    
    -----------------------------------------------------------------|
    --------------------b-b-------b-b-------b-b----------------------|
    |------b-b---------b-b-----7----7-7---7---7-7---7---7-7--------b-b----b-b----|
    |--9---9-9-----2---2-2-----7----7-7---7---7-7---7---7-7----7---7-7-7--7-7-7--|
    |--9---9-9-----2---2-2-----5----5-5---5---5-5---5---5-5----7---7-7-7--7-7-7--|
    |--7---7-7-----0---0-0-------------------------------------5---5-5-5--5-5-5--|
    
    Lead:
    
    --------------------------------------------|
    --------------------------------------------|
    -11-9----p--h----9---//------p------------|
    |--9---9-9---------12-11-12-----9--------12-11----------|
    -----------------------------------9--7-7---|
    --------------------------------------------|
    
    Bass:
    
    -----------------------------------------------------------------|
    -----------------------------------------------------------------|
    -----------------------------------------------------------------|
    -----------------------------------------------------------------|
    ---------------5----5-5---5---5-5---5---5-5----------------------|
    |--7---7-7-----0---0-0-------------------------------------5---5-5-5--5-5-5--|
    
    
    Riff…
  • Normal tuning
    p = Pulling off
    h = Hammer on
    
    
    Riff 1(a) - Lead Guitar - Chorus:
    e:------0-------------|
    B:--------3p1h3---1h3-|
    G:-2------------------|
    D:--------------------|
    A:--------------------|
    E:--------------------|
    
    
    Riff…
  • riff 1
    |-----------------------------------------------------------------------|
    |---------------------------12----------12------------------------------|
    |----9-11-9----9-12-9--9-12-----12-9-11----11--x4-----------------------|gregor
    |-9---------9-----------------------------------------------------------|
    |-----------------------------------------------------------------------|
    |-----------------------------------------------------------------------|
    
    
    |--------------------------------------------------------------------|
    |--------------------------------------------------------------------|0.12
    |----9----7-----5----4-----------------------------------------------|Aaron
    |--------------------------------------------------------------------|
    |----7----5-----3----2-----------------------------------------------|
    |--------------------------------------------------------------------|
    
    riff2
    with…
  • Tune down 1 step DGCFAD
    
    Fade in
    D-------
    A-------
    F--4----
    C--4----
    G--2----
    D-------
    
    VERSE
    
    			2x
    D[----------------------]
    A[----------------------]
    F[---------------4--2---]
    C[--2-----5--4---4--2---]
    G[--2-----5--4---2--0---]
    D[--0-----3--2----------]
    
    Pain...is…
  • Riff 1----------------------|
    e:-----------------------------------------|
    B:-----------------------------------------|
    G:6h8------6h8------6h8--------------------|
    D:6h8------6h8------6h8------6------4------|
    A:6--------6--------6--------6------4------|
    E:6--------6--------6--------4------2------|…
  • Tune down to B (2.5 steps)
    
     ~         bend the note normal
    
     ~~~~~     bend the note rapidly
    
     X         muffled string
    
    
    Intro
      
       Riff 1 - 1 time
    
       guitar 1            2x                                  1x
    B |--------------------------------------------|---------------------------|
    F#|--------------------------------------------|---------------------------|
    D…
  • INTRO
    
      ||----1---0-----------------1---0------------------------  Play twice
      ||--3---3---3-------------3---3---3----------------------
      ||---------------1---0-----------------1---0-------------
      ||-------------2---2---0-------------2---2---2-----------…
  • Riff 1
    |---------------------------------------------------------------------|
    |---------------------------------------------------------------------|
    |-----------------12--------------------------------------------------|GREG
    |-12--14-14h15-14----14-14h15-14---12--14-14h15-14---12-14-14h15-14---|
    |---------------------------------------------------------------------|
    |---------------------------------------------------------------------|
    RIFF…
  • Tune Down 1 step: DGCFAD
    
     GUITAR1
    |-----------------------------|------------------------------|
    |----9-5---------9-5-9--7--5--|----9-5---------9-5-9--7--5---|
    |--6-----6:::--6--------------|--6-----6:::--6---------------|
    |-----------------------------|------------------------------|
    |-----------------------------|------------------------------|
    |-----------------------------|------------------------------|
    |GUITAR2…
  • Tuning:(1:D 2:A 3:F 4:C 5:G 6:D)
    
    
    riff 1 guitar 1
    you must feel
    --------------------------------------------------------------------------------|
    --------------------------------------------------------------------------------|
    |-11h12-12---12--11-11h12-12--12p11-11--114~~---4--11h12-12-12-1211-11--12----4---8--11---|
    --------------------------------------------------------------------------------|
    --------------------------------------------------------------------------------|
    --------------------------------------------------------------------------------|
    
    riff…
  • tuning: standard (from low to high): E,A,D,G,B,e
    
    # Intro #
    e----------------------------------------|--------------------------------------|
    B----------------------------------------|--------------------------------------|
    G----------------------------------------|--------------------------------------|…
  • tune one step down
    
    g1
    
    |------------------------------|--------------------------------|
    |------------------------------|--------------------------------|
    |--99999--77777--5555--4444----|---9999-7777--------------------|
    |--77777--55555--3333--2222----|---7777-5555--5555--7777--------|
    |------------------------------|--------------3333--5555--------|
    |------------------------------|--------------------------------|
    
    g2
    |----------------------------|-------------------------------------------|
    |----------------------------|-------------------------------------------|
    |----------------------------|-------------------------------------------|
    |----------------------------|-------------------------------------------|
    |-99999/-77/5555--3333--2222-|---9999-7777-55555-7777-2222---------------|
    |-77777/-55/3333--1111--0000-|---7777-5555-33333-5555-0000---------------|…
  • E|-7-7-x-7-7-x-7-7-5-5-x-5-5-x-5-5-5-5-x-5-5-x-5-5-7-7-7-7-7-x-7-7-----|
    B|-7-7-x-7-7-x-7-7-5-5-x-5-5-x-5-5-7-7-x-7-7-x-7-7-9-9-9-9-9-x-9-9-----|
    G|-8-8-x-8-8-x-8-8-6-6-x-6-6-x-6-6-7-7-x-7-7-x-7-7-9-9-9-9-9-x-9-9-----|
    D|-9-9-x-9-9-x-9-9-7-7-x-7-7-x-7-7-7-7-x-7-7-x-7-7-9-9-9-9-9-x-9-9-----|
    A|-9-9-x-9-9-x-9-9-7-7-x-7-7-x-7-7-5-5-x-5-5-x-5-5-7-7-7-7-7-x-7-7-----|
    E|-7-7-x-7-7-x-7-7-5-5-x-5-5-x-5-5-5-5-x-5-5-x-5-5-7-7-7-7-7-x-7-7-----|…
  • Intro:  Rhythm 1, 4 times with
    	Solo 1 twice.
    
    	Rhythm 2, 4 times with  
    	Solo 2, 4 times.
    
    Verse:  Rhythm 3, 4 time with
    	Solo 3, 4 times.
    	
    Chorus: Rhythm 4, 4 times with
    	Solo 4 on the last two times.
    
    	Rhythm 2, 4 times…
  • Intro
    Riff 1
    |--------------------------------------------------------------------|
    |--------------------------------------------------------------------|
    |--4--4-4p2--4-4--2h4------------------------------------------------|Aaron
    |--4--4-4p2--4-4--2h4------------------------------------------------|Some…
  • Riff 1
    I can take one day
    I cannot deny
    |--------------------------------------------------------------------|
    |--------------------------------------------------------------------|Steve
    |------0--3-0--------0--3-0---------0--3-0--------0---3-0------------|BASS…
  • tuning : drop D
    
       = n.H.
    
      Main Riff
    
      ----------------|----------------|----------------|-----------------
      ----------------|----------------|----------------|-----------------
      ----------------|----------------|----------------|-----------------…
  • Tune down to B (2.5 steps)
    
     ~         bend the note normal
    
     ~~~~~     bend the note rapidly
    
    Intro
    
    Riff 1 -  2 times
    
       guitar 1                     2x
    B |------------------------------------------------------------------|
    F#|------------------------------------------------------------------|
    D…
  • Tune guitars down 1 step: DCGFAD
    
    Intro
     clean tone           play 3 times
    |---------------------------------|---------------------------------|
    |*-------------------------------*|---------------------------------|
    |------5-------5-----------4-5-4--|-----5-------5---7b8r7-5-7-5-----|
    |--7-7---7---7---7---7---5--------|-7-7---7---7---7-------------7-5-|
    |*---------------------7---------*|---------------------------------|
    |---------------------------------|---------------------------------|…
  • Tune down 1 step
    
    CLEAN TONE 	Aaron
    |-------------------------------------------------------|
    |-------0-----------------------------------------------|
    |----9------------9----------------7---------7----------|
    |--7---------10----------------7---------7--------------|
    |--------10------------------5---------8----------------|
    |-------------------------------------------------------|
    
    Distortion…
  • Riff 1
    You Live for times
    |--------------------------------------------------|
    |--------------------------------------------------|
    |--------------------------------------------------|Both
    |--------------------------------------------------|
    |---------------4~~------repeat--------------------|
    |--4~~---2~~---------------------------------------|
    
    Riff…
  • Tune down to B (2.5 steps)
    
     ~         bend the note normal
    
     ~~~~~     bend the note rapidly
    
     Intro 
    
       Riff 1 - 2 times
    B |-----------------------------------------------------------|
    F#|-----------------------------------------------------------|
    D…
  • Intro Arranged for Guitar
    |----------------------------------------------------------------|
    |----------------------------------------------------------------|
    |-------------------------------------x2-------------------------|
    |-------5--------------------------------------------------------|
    |--0--------7---3---5--------------------------------------------|
    |------------------------0----1---3------------------------------|
    
    Riff…
  • Tune down to B (2.5 steps)
    
     ~         bend the note normal
    
     ~~~~~     bend the note rapidly
    
    
    Intro - very fast
    
    Riff 1 - 4 times - staring down into the depths ... 
       
       guitar 1      
    B |---------------------------------------------------|
    F#|---------------------------------------------------|
    D…
  • Rhy Fig 1
       Gx Giii   A#   A     Gx Giii  A#    A       Gx Giii  A#   A 
    Riff A
    e|-------------------------------------------------------------------
    B|---------------------------------------------15--------------------
    G|-12-------------------12-------------------------------------------
    D|--------------------------10---12-12-11-11-----12---…
  • KEYBOARD INTRO
    
    Riff 1
    intro
    Gather round its the 
    Dying free the spirits
    |--------------------------------------------------|
    |-----12-------------------------------------------|
    |--9------12-9----11-9---9-------------------------|
    |--------------9-------9---------------------------|GREGOR
    |--------------------------------------------------|
    |--------------------------------------------------|
    
    RIff…
  • tuning Eb Ab Db Gb Bb eb
    |     |:this is the rythm
    
    intro:
    eb||--------------------------------------------------------||
    Bb||------1-----------0------------0-----0-----0-----0------||
    Gb||----2---2-------0---0-----------------------------------||
    Db||--2-----------0--------------2-----2-----2-----2--------||
    Ab||---------------------------2-----2-----2-----2----------||
    Eb||--------------------------------------------------------||…
  • Tune down to one whole step:
    
    E
    B
    G
    D
    A
    D
    
    Intro:
    
    Played by piano
    
    Arranged for guitar.
    
    Guitar 1:
    
    ----------------------------------------------------------------------------------------
    10------------------------------10------------------------------------------------------
    |------7----------7----9----10--------7----------7----9----10---------------------------------------
    -----------------------------------------------------------8----------------------------
    ----------------------------------------------------------------------------------------
    ----------------------------------------------------------------------------------------
    
    Guitar…
  • Вступление:
      A           G     D             F         G
    E/---------------------------------------------
    B/----12-13-15--13------12-13-13-12/1312------
    G/----------------------------------------14---
    D/-14----------------14------------------------
    A/---------------------------------------------
    E/---------------------------------------------
    (тоже…
  • Tuning: C# F# B E G# C#
    
    intro
    -----------------------------------------------------
    -----------------------------------------------------
    -----------------------------------------------------
    ----------------------------------6------------------
    ---3---6---8----------8-----3-3---4--6----8-----x-/--
    ---1---4---6----------6-----1-1------4----6-----x-/--
    
    main
    
    Guitar…
  • Riff 1
    I find when Im
    |----------------------------------------------------------------------|
    |----------------------------------------------------------------------|
    |----------------------------------------------------------------------|
    |-8/-9--9--9-9-9-9--9-9------------------------------------------------|Both…
  • Tune down to B (2.5 steps)
    
     ~         bend the note normal
    
     ~~~~~     bend the note rapidly
       
       Part 1
    
       guitar 1                    
    B |-------------------------------------------------------------------------|
    F#|-------------------------------------------------------------------------|
    D…
  • Tune down to B (2.5 steps)
    
     ~         bend the note normal
    
     ~~~~~     bend the note rapidly
    
     X         muffled string
    
    
    Intro
    
    Riff 1 - 2 times
    
       guitar 1            
    B |----------------------------------------------------------------------|
    F#|----------------------------------------------------------------------|
    D…
  • Riff 1
    intro
    Innocence beneath this
    |------5------5-----4------4------3---------------------------------|
    |----7------7-----7------6------5--------4--------------------------|
    |--6------6-----6------5------4--------5---------2------------------|
    |------------------------------------5---------2--------------------|
    |--------------------------------------------0----------------------|
    |-------------------------------------------------------------------|
    
    theres…
  • Intro
    |-------------------------------------------------------------------
    |-------------------------------------------------------------------
    |-------------------------------------------------------------------
    |-------------------------------------------------------------------
    |-----------3-----3--5---/-12-------------3-----3--5---------------
    |--5--5--5-----5------------------5--5--5-----5--------5--3--5p3h5--…
  • Tune down to B (2.5 steps)
    
     ~         bend the note normal
    
     ~~~~~     bend the note rapidly
    
    
    Intro
    
     Riff 1 - 2 times
    
       guitar 1   
    B |--------------------------------------|
    F#|--------------------------------------|
    D…
Наверх