Аккорды «Paramore»

Paramore
Paramore — американская рок-группа, образовавшаяся в городе Франклин, штат Теннесси, США, в 2004 году. В её состав входят Hayley Williams - вокал, клавишные, Taylor York - ритм-гитара, Jeremy Davis - бас-гитара. Группа выпустила свой дебютный альбом «All We Know Is Falling» в 2005 году. Второй альбом «Riot!» вышел в 2007 году и впоследствии стал платиновым в США, а в Великобритании и Ирландии — золотым. Третий альбом «Brand New Eyes» вышел 29 сентября 2009 года, возглавил хит-парады многих стран… Читать полностью... Paramore — американская рок-группа, образовавшаяся в городе Франклин, штат Теннесси, США, в 2004 году. В её состав входят Hayley Williams - вокал, клавишные, Taylor York - ритм-гитара, Jeremy Davis - бас-гитара. Группа выпустила свой дебютный альбом «All We Know Is Falling» в 2005 году. Второй альбом «Riot!» вышел в 2007 году и впоследствии стал платиновым в США, а в Великобритании и Ирландии — золотым. Третий альбом «Brand New Eyes» вышел 29 сентября 2009 года, возглавил хит-парады многих стран мира, включая Австралию и Великобританию, и считается самым на данный момент успешным в истории группы. Группа образовалась в 2004 году в составе: Hayley Williams - вокал, гитарист Josh Farro, басист Jeremy Davis, и ударник Zac Farro, позже к ним присоединился сосед Хейли, Jason Bynum - соло-гитара. Ребята видели музыку совсем по-разному, но стоило им только собраться вместе, и что-то будто щелкнуло. Уверенная и жизнерадостная музыка, найденная на их альбоме «All We Know Is Falling» характеризуется такой редкой и естественной химией, что она легко вызывает привыкание и игнорировать ее становится невозможно. Именно благодаря этой химии, Paramore остаются вместе и выделяются среди других команд. Молодая группа образовалась во Франклине, штат Теннесси, после того, как туда переехала Хейли и познакомилась с двумя братьями, Джошем и Заком Фарро. Троица нашла бас-гитариста Джереми Девиса и почти незамедлительно начала выступать. Назвавшись Paramore, они играли на вечеринках и школьных шоу талантов, зажигали на улицах Франклина. Комбинация из музыкальной энергии братьев и невероятной харизмы Хейли помогла им быстро привлечь внимание, в частности флоридского лейбла Fueled by Ramen, который зарегистрировал группу и настоял на том, чтобы они начали записывать свой дебютный альбом. Paramore пришли в звукозаписывающую студию к продюсерам Джеймсу Вишеру (Dashboard Confessional, Further Seems Forever, Underoath) и Майку Грину (анг. Mike Green) (Yellowcard, The Black Maria) и поразили их своей искренностью и энтузиазмом. Закончив запись, группа отправилась в тур, впечатляя людей своей страстной позитивностью. Джош говорит: «Это просто удивительно, как наша группа изменилась с прошлой весны. Практически весь год мы провели, находясь в турне с разными группами, от Simple Plan и Story of the Year до Acceptance и My American Heart. Каждый тур, в котором мы были, невероятен, и это безусловная удача, что у нас была возможность играть с такими замечательными и талантливыми командами.» Это был всего лишь вопрос времени, как быстро ребята смогут привлечь внимание критиков и прессы. SPIN.com назвал Уильямс «сгустком энергии», Alternative Press заявила, что их песни «мелодично богаты» и назвала Paramore группой года 2006, газета New York Times сказала, что «All We Know Is Falling» является одним из лучших альбомов года, а телеканал MTV был впечатлен так сильно, что выбрал их для своей программы «Ты услышишь это первым». В 2007-м году, к моменту записи альбома Riot!, группу покинул гитарист Hunter Lamb. На позицию ритм-гитары пришёл Taylor York. Таким образом, сформировался состав из пяти участников. Этой дружной компанией Paramore колесили по миру ещё 3 года. Paramore описывают свою музыку тремя словами: энергичная, эмоциональная, веселая. Их живые выступления сопровождаются взрывной энергией и безжалостным драйвом - а все для того, чтобы быть уверенными в том, что зрители тоже отлично проводят время, как и сама команда. Все участники группы талантливы не по годам: замысловатые гитарные рифы Джоша, кинетические ритмы Зака и сильные басы Джереми создают идеальную основу для цепляющей душу музыки и чистого, сердечного вокала Хейли. Уильямс сильно старалась, вкладывая в тексты песен эмоции и кусочки своей жизни, рассказывающие о том, как она взрослела, о страстной любви к близким ей людям и музыке. Все участники Paramore - настоящие друзья, которые любят играть вместе, и им весело это делать. У них есть одна общая цель - общаться с людьми, и их энтузиазм заразителен. «Я думаю, этот год пройдет очень быстро. У нас есть замечательная возможность путешествовать по разным странам: Великобритания, Япония… Мы стараемся не воспринимать это как должное» - говорит Хейли. - «Есть еще столько вещей, которых нам с группой очень хотелось бы попробовать, так что мы собираемся задержаться, чтобы все это сделать.» 20.12.2010 объявлено об уходе из группы братьев Фарро (Josh Farro и Zac Farro). В группе знали об этом ещё 2 месяца назад. Мотивом ухода объявлена усталость музыкантов. Однако в своем блоге братья Фарро разместили пост, в котором объясняют истинные причины своего ухода из Paramore, который произошел во многом благодаря Hayley Williams. Новый проект братьев называется Novel American. К началу 2011-го года группа Paramore уже нашла себе музыкантов для участия в турне. Новым соло-гитаристом Paramore стал брат ритм-гитариста этой команды Taylor York - Justin York, а вот в роли ударника выступит Josh Freese, являющийся участником A Perfect Circle. В этом же году Paramore выпускают песни Monster, а затем и клип на нее, и Renegade. Состав На данный момент Hayley Williams - вокал (с 2004) Jeremy Davis - бас-гитара (с 2004) Taylor York - ритм-гитара, перкуссия (с 2007) Бывшие участники Josh Farro - соло-гитара, бэк-вокал (2004-2011) Zac Farro - ударные, перкуссия (2004-2011) Hunter Lamb - ритм-гитара (2005-2007) Jason Bynum - ритм-гитара, бэк-вокал (2004-2005) John Hembree - бас-гитара (2005) Концертный состав Josh Freese - ударные (с 2010) Jon Howard - ритм-гитара,фортепьяно, бэк-вокал (с 2010) Justin York - гитара, бэк-вокал (с 2010) Дискография Студийные альбомы All We Know Is Falling (26 июля 2005) Riot! (12 июня 2007) Brand New Eyes (29 сентября 2009) Концертные альбомы Live In The UK 2008 (30 января 2008) The Final Riot! (25 ноября 2008) Мини-альбомы The Summer Tic EP (2006) The Only Exception EP (2010) Синглы Pressure (2005, альбом All We Know Is Falling) Emergency (2005, альбом All We Know Is Falling) All We Know (2006, альбом All We Know Is Falling) Misery Business (2007, альбом Riot!) Crushcrushcrush (2007, альбом Riot!) That's What You Get (2008, альбом Riot!) Decode (2008, альбом Twilight OST) Ignorance (2009, альбом Brand New Eyes) Brick by Boring Brick (2009, альбом Brand New Eyes) The Only Exception (2010, альбом Brand New Eyes) Monster (2011, альбом ) Renegade (2011, альбом ) Официальный сайт - http://www.paramore.net Скрыть...
Популярные аккорды Paramore:
алфавиту | просмотрам | случайно
  • Tuning: Drop D
    
    Intro:
    e|-----------------------------------------------------------------------------|
    B|-----------------------------------------------------------------------------|
    G|-----------------------------------------------------------------------------|
    D|-----66…
  • Tuning: Standard EADGBe
    
    Chords used:
    Bm - x24432
    D -  xx0232
    G -  320033
    A -  x02220
    Em - 022000
    
    
    Intro: Bm-D-Bm-D-G-D-G-D- x2
    
    
    Verse 1:
    Bm
      if i'm a bad person
    you don't like me
    i guess i'll
    make my…
  • Tuning: Standard EADGBe
    
    Chords used:
    B -   x24442
    F#m - 244222
    E -   022100
    C#m - x46654
    A -   x02220
    
    
    Intro: B--F#m-E-- x2
    
    
    Verse 1:
    B
    When I was younger I
                 F#m
    saw my daddy cry…
  • Tuning: Standard EADGBe
    
    Key: D
    
    Chords used:
    
    Bm- x24432
    D-  xx0232
    G-  320033
    A-  x02220
    F#- 244322
    
    Intro: Bm-D-G-A (x2)
    
    Guitar 2:
    e|--------------------------------------------------------------
    B|--------------------------------------------------------------
    G|-11--11-11\9-9--14--14-14\11-11--11--11-11\9-9--6--6-6/7\6/7--
    D|--x---x--x-------x---x--x--x--x---x---x--x-x-x--x--x-x-x-x-x--
    A|--9---9--9\7-7--12--12-12\-9--9---9---9--9\7-7--4--4-4/5\4/5--
    E|--------------------------------------------------------------
    
    
    Verse…
  • INTRO: C#m
            A
    I don't mind,
      C#m              B                     A
    Letting you down easy, but just give it time
          C#m                  B                 A
    If it don't hurt now well just wait, just wait…
  • Intro 0:09 (distortion, slight delay)
    e|----------------------------------------------------------------|
    B|------------------------6-6--------------6-6-8------------------|
    G|--15-15--9/12---------------9-7--2/5-----------7--14-^14/15-----|
    D|----------------------------------------------------------------|
    A|----------------------------------------------------------------|
    D|----------------------------------------------------------------|
    
    Verse…
  • CAPO 1 
     
    Intro: G  Cadd9  Dsus  G Cadd9 }x2
     
    (G) 
    You've come to tell me something 
       (Cadd9)    
    You say I ought to know 
       (Dsus)                                         (G) 
    And He don't love me anymore and…
  • Bb
    I don't even know myself at all
                         F
    I thought I would be happy by now
    Dm                            
    But the more I try to push it
                        C          F
    I realize, gotta let go of…
  • Main Chords (Intro And Verse)
    
    G5 / E5                  G5
    Do not try to take this from me    |
    G5 / E5                  G5        |
    Do not try to take this from me    |
    (Riff 1 )                          |
    Now ow…
  • Tuning: Standard EADGBe
    
    Key: F#
    
    Chords used:
    F# -    244322
    C# -    x46664
    Ebm -   x68876
    B -     x24442
    F#/Bb - x143xx
    G#m -   466444
    A -     x02220
    E -     022100
    
    
    Verse 1:
    B      F#/Bb
      I am outside
    Ebm…
  • Tuning: Standard EADGBe
    
    Chords used:
    Eb - x68886
    Bb - x13331
    Cm - x35543
    G# - 466544
    
    
    Intro:
    
    Guitar 1: G#--G#--Bb--Cm-Bb (x2)
    
    Guitar 2:
    e|------------|------------|-------------|
    B|------------|------------|-------------|
    G|-5-5--10/12-|-7-7--12/15-|-12-12-12\10-|
    D|-x-x---x/-x-|-x-x---x/-x-|--x--x--x\-x-|
    A|-3-3---8/10-|-5-5--10/13-|-10-10-10\-8-|
    E|------------|------------|-------------|…
  • Tuning: Standard EADGBe
    
    Chords used:
    Fm -  133111
    C# -  x46664
    G# -  466544
    Eb -  x68886
    Bbm - x13321
    C/E - 032xxx
    
    
    Intro: Fm--G#-Bbm-Fm--Bbm-Eb- x2
    
    Guitar 2: x2
              Fm               G#      Bbm
    e|--------------------|---------|----16-|
    B|--------------------|----13-14|-16----|
    G|-10-11-10-----------|-13------|-------|
    D|-----------10-11-13-|---------|-------|
    A|--------------------|---------|-------|
    E|--------------------|---------|-------|…
  • Tuning: Standard EADGBe
    
    Key: E
    
    Chords used:
    C#m -   x46654
    E -     022100
    B -     x24442
    A -     x02220
    Ab/C -  x365xx
    G#m -   466444
    F#/Bb - x143xx
    
    
    Intro: Ab/C
    
    Verse 1:
    C#m            E
    I got a lot…
  • G
    Let 'em have their time
                   B
    Sit back and let them shine
                      Em
    Let 'em rise and rise
           C                   G
    Cause one day they're gonna fall
    
    
                          G
    Let 'em…
  • Tuning: Standard EADGBe
    
    Chords used:
    F#m -  244222
    D -    xx0232
    A -    x02220
    E -    022100
    Bm -   x24432
    A/C# - x476xx
    E/G# - 476xxx
    C#m -  x46654
    
    
    Intro: F#m--A/C#-D-A--E-D- x4
    
    Guitar 2: This is exactly…
  • Tuning: Drop D
    
    1st Verse:
    
    E------------------------------------------------|
    B------------------------------------------------|
    G------------------------------------------------| CONTINUED...
    D-3-------2-3-------2----3--------2-3-------2----|
    A-3---0-3---3---0-3---3--3----0-3---3---0-3---3--|
    D-3-3-------3-3----------3--3-------3-3----------|
    
    ----------------------------------------------------------|
    ----------------------------------------------------------|
    7------------7---------------7------------7---------------|…
  • CAPO 1
    
    
     C       Em          F
    Whoa ah ohh whoa ah ohhh...  
    
                        C                   Em            F 
    I've been roaming around always lookin' down at all I see,
              C                 Em…
  • Chords used:
    Cm -   x35543
    G# -   466544
    Eb -   x68886
    Bb -   x13331
    Fm -   133111
    Eb/G - 365xxx
    C# -   x46664
    
    
    Intro: Cm (delay pedal effect) (x2)
    then G#--Cm-Eb-G#--Bb-Cm (x2) Eb
    
    
    Guitar 2:
    e|----11-------11-------11----13-------15---------|
    B|-11----11-11----11-11----11----11-11------------|
    G|------------------------------------------------|
    D|------------------------------------------------|
    A|------------------------------------------------|
    E|------------------------------------------------|
    then…
  • Tuning: Drop C#
    
    Chords used: Drop C# only
    B5 -  999xxx
    A5 -  777xxx
    D5 -  000xxx
    E5 -  222xxx
    F#5 - 444xxx
    G5 -  555xxx
    
    
    Intro: B5-A5-D5-E5 (x2) then B5
    
    
    Verse 1:
    B5                     G5       F#5…
  • Intro: Bm - D - F#m - E
          
    Bm      D                F#m          E
    I won't be the one to disappoint you anymore,
    I know, I've said all this and that you've heard
    It all before,
    The trick is getting you to think…
  • вст:  Em   H7
     
    Em                                     C                              D
    You were my conscience, so solid, now you're like water 
    Em                               C                  D
    And we started drowning,…
  • Tuning: Standard EADGBe
    
    Chords used:
    B
    F#
    Abm
    E
    B/D#
    F#/Bb
    A
    
    Intro: B--G#m-E x2
    
    Guitar 2:
    e|-7-7-7-9-9-9-11-11-11-14-14-14-14-14-------------|
    B|-0-0-0-0-0-0--0--0--0--0--0--0--0--0-------------|
    G|-------------------------------------------------|
    D|-------------------------------------------------|
    A|-------------------------------------------------|
    E|-------------------------------------------------|
    
    
    Verse…
  • F                       Dm
    There, is not a single word,
                  F
    In the whole world
                            Dm
    That could describe the hurt,
                            Bb
    The dullest knife just sawing back and…
  • Chords used:
    
    A9   - x02200
    C#m  - x46654
    B/D# - x6444x
    E -    022100 or 079900
    
    Intro: A9--C#m (x2)
    
    Guitar 2: / means slide up, \ means slide down, x is dead string
    e|-----------------------------------
    B|-----------------------------------
    G|-16--16\11--13--9--8--8-8/9\8/9----
    D|--x---x--x---x--x--x--x-x-x-x-x----
    A|-14--14\-9--11--7--6--6-6/7\6/7----
    E|-----------------------------------
    then
    e|-----------------------------------
    B|-----------------------------------
    G|-16--16\11--13--9--8--8-8/9\8\4----
    D|--x---x--x---x--x--x--x-x-x-x-x----
    A|-14--14\-9--11--7--6--6-6/7\6\2----
    E|-----------------------------------
    
    
    Verse…
  • Guitar 1 - { eb bb gb db Ab Db )
    
    Guitar 2 - { eb bb gb db Ab Db )
    
    
    Intro 2x
    
    Guitar1
    |------------------------------------------|
    |------------------------------------------|
    |--555555----------------------------------|
    |--555555---555555---222222---000000-------|
    |--333333---555555---222222---000000-------|
    |-----------555555---222222---000000-------|
    
    |--------------------------------|
    |--------------------------------|
    |--555555------------------------|
    |--555555---555555---000000000---|
    |--333333---555555---000000000---|
    |-----------555555---000000000---|
    
    Guitar2
    |-------------------------------|-------------------------|
    |-------------------------------|-------------------------|
    |--13-13/16-16-16-16------------|--12-12-/11-11-11-11-----|
    |--x--x--x--x--x--x-------------|--x---x--x--x--x---x-----|
    |--15-15/14-14-14-14------------|--10-10-/9--9--9---9-----|
    |-------------------------------|-------------------------|
    
    |----------------------|-----------------------|
    |----------------------|-----------------------|
    |--13-13/16-16-16-16---|--19-19-19-19-19-19----|
    |--x--x--x--x--x--x----|--x--x--x--x--x--x-----|
    |--15-15/14-14-14-14---|--17-17-17-17-17-17----|
    |----------------------|-----------------------|
    
    Verse-
    G1
    G2
    |--------------|------------------|
    |--------------|------------------|
    |---7----------|--5555555555555---|
    |---5~---------|--5555555555555---|
    |---5~---------|--3333333333333---|
    |---5~---------|------------------|
    
    
    
    Verse2
    
    Guitar1
    |--------------------------------|-----|---------------|--------|
    |--------------------------------|-----|---------------|--------|
    |--------------------------------|-----|---------------|--------|
    |-55-555-555-555-577-777-777-777-|-2-2-|---------------|--0~-0~-|
    |-55-555-555-555-577-777-777-777-|-2-2-|---------------|--0~-0~-|
    |-55-555-555-555-577-777-777-777-|-2-2-|---------------|--0~-0~-|
    Guitar2
    |--------------------------------|-----|---------------|--------|
    |--------------------------------|-----|-5555/88888888-|--------|
    |-77-777-777-777-799-999-999-999-|-4-4-|-4444/7777777--|--2~-2~-|
    |-55-555-555-555-577-777-777-777-|-2-2-|---------------|--0~-0~-|
    |-55-555-555-555-577-777-777-777-|-2-2-|---------------|--0~-0~-|
    |-55-555-555-555-577-777-777-777-|-2-2-|---------------|--0~-0~-|
    
    
    Refrain-
    Not…
  • Tuning: Standard EADGBe
    
    Chords used:
    D -     xx0232
    A -     x02220
    Bm -    x24432
    G -     320033
    Em -    022000
    F#m -   244222
    F# -    244322
    D/F# -  2x023x
    F#/Bb - x143xx
    E/G# -  476xxx
    
    
    Intro: Bass lines,…
  • Tuning: Drop D
    
    Josh (Lead Guitar) - Clean:
    
    e|--11------11--10------10----------------------|
    B|--------------------------13------13--11------|
    G|------12----------12----------12----------12--|
    D|----------------------------------------------|
    A|----------------------------------------------|
    E|----------------------------------------------|
    
    e|--11------11--10------10------------------13--|
    B|--------------------------13------13--11------|
    G|------12----------12----------12--------------|
    D|----------------------------------------------|
    A|----------------------------------------------|
    E|----------------------------------------------|
    
    At…
  • CAPO 3 
     
     C                           Em G  
    You escape like a runaway train 
     C                      Em   G  
    Off the tracks and down again. 
     C                                Em      G  
    My heart’s beating like…
  • Tuning: Standard EADGBe
    
    Chords used:
    Am -  x02210
    G/B - x2x003
    C -   x32010
    Dm -  xx0231
    Em -  022000
    F -   133211
    G -   320003
    
    
    Intro: Am-G/B-C-F-Am-G/B-C-Dm- x2
    
    
    Verse 1:
    Am
      I scraped my knees…
  • Standard Tuning
    CAPO3
    
                      E    
    Let em have their time
                  G#
    Sit back and let em shine
                  A
    Let em rise and rise
            B               E
    Cos one day their gonna fall…
  • Tuning: Standard EADGBe
    
    Chords used:
    F -   133211
    G -   320003
    Am -  x02210
    C -   x32010
    G/B - x2x003
    Em -  022000
    Dm -  xx0231
    
    
    Intro: Plucking
    F--G-Em- x2
    
    (1,2,3,4)
    
    
    Verse 1:
    F
    I'm going away for…
  • Tuning: Standard EADGBe
    
    Chords used:
    E -    022100
    B -    x24442
    C#m -  x46654
    A -    x02220
    G#m -  466444
    B/D# - x698xx
    F#m -  244222
    
    
    Verse 1:
    E
    Maybe it's been years
                       C#m
    since I genuinely…
  • Intro: Bm-D-G 2x
    
    Verse: Bm      D                G
          I can't believe the news today,
          I can't close my eyes and make it go away.
          
    Bridge: D         G
            How long? How Long must we sing this song?…
  • Intro: D5  F#5  B5  A5 / C5 2x 
      
    Verse 1: 
     D5  
    Think of me when you're  
     F#5                    B5 A5 / C#5  
    out when you're out there 
     D5                         F#5  B5  A5 / C#5  A5  
    I'll beg you nice…
  • Tuning: Standard EADGBe
    
    Intro: D--F#m--D
    
    
    Verse 1:
    D          F#m          D               F#m
    So what if I don't have a lot to talk about?
    D          Hm                  D              Em
    I shove my mouth and…
  • Intro:E B x2 C# G# x2 }x2
    
    E   B
    Why do you care what people think?
    E   B
    Are you hooked up to their leash?
    C#        G#
    You know, anklebiters!
    C#          G#
    Ate up your personality
    E    B
    Try, to remember how…
  • Pattern A     (E shaped barre chord 4th fret)   
    
    e|---------|---------|---------|---------|
    B|---------|---------|---------|---------|
    G|-5-------|-5-------|-5-------|-5-------|
    D|---6---6-|---6---6-|---6---6-|---6---6-|…
  • Tuning: Standard EADGBe
    
    Chords used:
    E -    022100
    C#m -  x46654
    A -    x02220
    B -    x24442
    B/Eb - x698xx
    G#m -  466444
    F#m -  244222
    
    
    Intro:
    E--C#m--E--C#m--E--C#m--A-B-C#m-B/Eb- x2
    
    
    Verse 1:
    E…
  • Tuning: Standard EADGBe
    
    Key: A
    
    Chords used:
    F#m - 244222
    A -   x02220
    D -   xx0232
    Bm -  x24432
    E -   022100
    
    
    Intro:
    
    Part 1:
    e|---2---2---2---2---2---2---2---2-|---2---2---2---2-|
    B|-2---2---2---2-------------------|-0---0---0---0---|
    G|-----------------2---2---2---2---|-----------------|
    D|---------------------------------|-----------------|…
  • Intro: G5  B5  E5 }x2 
      
    Verse 1: 
      G5      B5           E5     G5         B5                
    Been through the ring ah-a couple times-  
            E5       B5          G5        
    I came up caloused and cruel,…
  • G                    Em
    Now when you say you wanna slow down,
    C                      D
    Doesn't mean you wanna slow down..
    
    G                     Em
    Maybe you just want a little extra time
           C              D
    To…
  • Tuning: Standard EADGBe
    
    Chords used:
    Am - x02210
    F -  133211
    C -  x32010
    Dm - xx0231
    
    
    Intro: Am--F--
    
    Bass Solo: Am--F-- x2
    
    
    Verse 1:
    Am
      your lies are bleeding 
                 F
    through your teeth
    Am…
  • Tuning: Standard EADGBe
    
    Chords used:
    A -    x02220
    F#m -  244222
    D -    xx0232
    E -    022100
    E/G# - 476xxx
    
    
    Intro:
    
    Part 1: A
    
    Guitar 2:
    e|-----4-4-----4-4----------
    B|-----5-5-----5-5----------
    G|-1h2-----1h2--------------
    D|--------------------------…
  • Tuning-( eb bb gb db Ab Db )
    
    intro-
    GtrI
    |----------------------------------------------------------|
    |----------------------------------------------------------|
    |-6-6-6-6-6-6-6-6--99999999-77777777-1111111111111111------|
    |-x-x-x-x-x-x-x-x--xxxxxxxx-xxxxxxxx-x-x-x-x-x-x-x-x-------|2x
    |-4-4-4-4-4-4-4-4--77777777-66666666-9-9-9-9-9-9-9-9-------|
    |----------------------------------------------------------|
    GtrII
    |--------------------------------------|…
  • Tuning: Standard
    Chords by Steph Tana: 
    C = x32010
    Am = x02210
    Em = x22000
    F = 13300x
    G = 320033
    
    Intro: C-Am-Em-F-G 2x C
    
    Verse1:
    
    C               Am
    I don't mean to run but everytime you 
    Em…
  • Tuning: Standard EADGBe
    
    Key: E
    
    Chords used:
    E -   022100
    A9-   x02200
    C#m - x46654
    G#m - 466544
    B   - x24442
    
    Intro: E--A9----C#m--G#m--A9 (x2)
    
    Guitar 2:
    E--4-4-4-7-2-2-2/4-4-4-4-4-4-----------------------|
    B--------------------------------------------------|
    G--------------------------------------------------|
    D--------------------------------------------------|
    A--------------------------------------------------|
    E--------------------------------------------------|
    
    E--7-4-4-2-2-2-7-7-7-7-7-7-------------------------|
    B--------------------------------------------------|
    G--------------------------------------------------|
    D--------------------------------------------------|
    A--------------------------------------------------|
    E--------------------------------------------------|
    
    E--4-4-4-7-2-2-2/4-4-4-4-4-4-----------------------|
    B--------------------------------------------------|
    G--------------------------------------------------|
    D--------------------------------------------------|
    A--------------------------------------------------|
    E--------------------------------------------------|
    
    E--7-4-4-2-2-2-0-----------------------------------|
    B--------------------------------------------------|
    G--------------------------------------------------|
    D--------------------------------------------------|
    A--------------------------------------------------|
    E--------------------------------------------------|
    
    Verse…
  • Tuning: Standard EADGBe
    
    Chords used:
    E -    022100
    A -    x02220
    B -    x24442
    C#m -  x46654
    F#m -  244222
    E/G# - 476xxx
    
    
    Intro: E--A-B- x4
    
    
    Verse 1:
    E            A
      Gonna go on living
    B            E
    like…
  • E   C   G   D   A
    e|--7---3---3---5---5--|
    B|--8---5---3---7---5--|
    G|--9---5---4---7---6--|
    D|--9---5---5---7---7--|
    A|--7---3---5---5---7--|
    E|--7---3---3---5---5--|
    
    
    E       C        G
    I'm not angry anymore…
  • Tuning: Drop D both guitars
    
    Chords used: Drop D only
    F# -  444xxx
    A -   777xxx
    Ebm - 111xxx
    Abm - 666xxx
    B -   999xxx
    
    Intro:
    
    Guitar 1: Idle
    
    Guitar 2:
    e|-4-----4-----7---|-12------11-----------|
    B|---7-----7-------|----9-------9----9----|
    G|-----6-----6---6-|------11------11---11-|
    D|-----------------|----------------------|…
  • Tuning: Standard EADGBe
    
    Chords used:
    C#m -  x46654
    A -    x02220
    E -    022100
    B -    x24442
    G#m -  466444
    B/Eb - x698xx
    
    
    Intro: C#m---E--G#m-
    
    
    Verse 1:
          C#m
    Can't make my own decisions
    Or make any…
  • Tuning: Standard EADGBe
    
    Chords used:
    E -    022100
    B -    x24442
    C#m -  x46654
    A -    x02220
    B/Eb - x698xx
    
    
    Intro: E--A-B x2
    
    
    Verse 1:
    E                  A B
      Give me attention
      E          A B
    I need…
  • Tuning: Standard EADGBe
    
    Chords used:
    D -  xx0232
    A -  x02220
    Bm - x24432
    G -  320033
    Em - 022000
    C -  x32010
    
    
    Intro: D--Em--D--Em--D--Em--G--A(hold)
    
    
    Verse 1:
               G         Em
    There's an empty room…
  • Tuning: Standard EADGBe
    
    Chords used:
    D -    xx0232
    E -    022100
    A -    x02220
    F#m  - 244222
    Bm   - x24432
    A/C# - x4222x 
    
    
    Intro: D--
    
    Guitar 2:
    e|-------9-----9-----9-------------7-----7-----7--------
    B|---7-----7-----7-----7---7---7-----7-----7-----7---7--
    G|-----7-----7-----7-----7-------7-----7-----7-----7----
    D|-0-------------------------0--------------------------
    A|------------------------------------------------------
    E|------------------------------------------------------
    
    E-F#m--E…
  • Tuning: Standard EADGBe
    
    Chords used:
    C   -  x32010
    Am7 -  x02010
    Fm7 -  1x3210
    Am  -  x03210
    F   -  133211
    G   -  320003 or 320033
    
    Verse 1:
    C              Am7
      Oh star fall down on me
    C               Am7…
  • Chords used:
    Bb9- x13311
    Dm7- xx0211
    C-   x32010
    F-   133211
    Gm-  355333
    
    Intro: 
    
    Part 1:
    
    Guitar 1:
    Bb9-Dm7 (x2)
    
    Guitar 2:
                  Bb9                                  Dm7
    e|-------8----------8-----------------|-------------------5---5-
    B|---------10---------10----10----10--|---6-5-6---6-5-6-6---6---
    G|-10-10------10-10------10----10-----|-7-------7---------------…
  • Intro:
    G Am C Em x2
    
    G               Am                    C   Em
    I'm writing the future, im writing it out loud
    G                      Am                           C     Em
    we dont talk about the past, we dont talk…
  • Tuning: Standard EADGBe
    
    Chords used:
    
    A5-   577xxx
    G5-   355xxx
    C5-   x355xx
    F#5-  244xxx
    B5-   x244xx
    D5-   x577xx
    Em-   022000
    C-    x32010
    A9-   x02200
    D/F#- 2x023x or 254xxx
    
    
    Verse 1: (Heavy Distortion)
    A5-Em-G5-A5…
  • Tuning: Standard EADGBe
    
    Chords used:
    E -    022100
    B -    x24442
    C#m -  x46654
    A -    x02220
    F#m -  244222
    G#m -  466444
    B/Eb - x698xx
    
    
    Intro: E--G#m-C#m--B-E--F#m-C#m--B
    
    
    Verse 1:
    E
      we still live in…
  • 00:00 - 0:19
    e|----------------------------------|
    B|--------------6-------------------|
    G|------8----------------8-------8--|
    D|----------------------------------|
    A|--6-------6-------6--------6------|
    E|----------------------------------|…
  • E    [ch]B#m[/ch]   C#m   A
    |-------------------------------|
    |-------------------2-----------|
    |--------4-----4----2-----------|
    |--1-----4-----6----2-----------|2x
    |--2-----2-----6----------------|
    |--2-----x-----x----------------|
    
    
    
    E…
  • standard tuning
    CAPO 1
    
    
    
    Em              C
    Thank you for being
                     Em
    such a friend to me
                            C
    Oh I pray a friend for life
    Em                    C
    And have I ever told you…
  • D
    I told 'em all where to stick it
    I left town with a dime to my name
            G
    Said I'm done with all of my fake friends
    Self-righteous pawns in a losing game
          D
    Got my band and a light that won't go out
    Been…
  • iNTRO-
    A F#m G
    
    Verse- A F#m G 2X
    You're my number one,
    You're my golden star,
    I look at Earth from here,
    Still you don't seem so far,
    
    Verse- A F#m G 2X
    But you will never know,
    (You will never know,)
    Oh, you…
  • e|-2----------------|
    B|-2----------------|
    G|-2---4------------|
    D|-2---4------------|
    A|-2----------------|
    E|-2----------------|
    
    e|-2----------------|
    B|-2----------------|
    G|-2--3-------------|
    D|-2----4-----------|
    A|-2----4-----------|
    E|-2----------------|
    
    
    e|-2----------------|
    B|-2----------------|
    G|-2---4------------|
    D|-2---4------------|
    A|-2----------------|
    E|-2----------------|
    
    e|------------------|
    B|------------------|
    G|--1---------------|
    D|----2-------------|
    A|----2-------------|
    E|------------------|…
  • Chords used:
    
    Am-   x02210
    C-    x32010
    F-    133211
    G/B-  x20003
    G-    320033
    Dm7-  xx0211
    Dm-   xx0231
    Fm7-  xx3210
    
    Verse 1:
    Am          C          
       and when we get home
    F           C        G/B
      I…
  • Intro: D  A  Bm  G
    
    Verse 1:
    D                                 A 
       There's no one in town, I know.
                                    Bm
       You gave us some place to go.
                                        G
       I…
  • Tuning - STANDARD
    
    Intro-
    GtrI
    |-----0-------3---|-----0-------3---|--------------------------------|
    |-0h1---1-1p0---0-|-0h1---1-1p0---0-|-----0---0h1-0-----0----0h1-3-0-|
    |-0-------0-----0-|-0-------0-----0-|-----0-0-0-----0---0-0--0-----0-|
    |-----------------|-----------------|-0h2-------------2--------------|2x
    |-----------------|-----------------|--------------------------------|
    |-----------------|-----------------|--------------------------------|
    
    GtrII
    (-------------2x------------)
    |-------------|-------------|-----------------------|--------------------------|
    |-------------|-------------|-----------------------|-------0------------------|
    |-------2-----|-------2-----|-------0---------0-----|---------0---------0------|
    |-0h2-2---2p0-|-0h2-2---2p0-|-0h2-2--2p0-0h2-2--2p0-|--0h2-2----2-0h2-2--2p0---|
    |-------------|-------------|-----------------------|--------------------------|
    |-------------|-------------|-----------------------|--------------------------|
    Verse-
    GtrI
    |-----0-------3---|-----0-------3---|--------------------------------|
    |-0h1---1-1p0---0-|-0h1---1-1p0---0-|-----0---0h1-0-----0----0h1-3-0-|
    |-0-------0-----0-|-0-------0-----0-|-----0-0-0-----0---0-0--0-----0-|
    |-----------------|-----------------|-0h2-------------2--------------|2x
    |-----------------|-----------------|--------------------------------|
    |-----------------|-----------------|--------------------------------|
    
    Refrain-
    GtrI
    |-12-----12---12-----12---|-10----10---10----10---|-8-----8---8----8---|-10----10---7----7---|
    |---13-----13---13-----13-|---12----12---12----12-|--10----10--10---10-|---12----12---8----9-|
    |-----12----------12------|-----12---------12-----|----10--------10----|-----12---------9----|
    |-------------------------|-----------------------|--------------------|---------------------|
    |-------------------------|-----------------------|--------------------|---------------------|
    |-------------------------|-----------------------|--------------------|---------------------|
    GtrII
    |-------------------------|-----------------------|--------------------|------3--------------|
    |------1----------1-------|-----------------------|-----1---------1----|-------0----0~-------|
    |--------2----------2-----|-----0---------0-------|-------2---------2--|----0----0--0~-------|
    |---2------2----2-----2---|-------2---------2-----|---------3--------3-|---------------------|
    |-0-----------0-----------|---2-----2---2-----2---|---3---------3------|---------------------|
    |-------------------------|-0---------0-----------|-1---------1--------|-3-------------------|
    
    GtrI
    |-12-----12---12-----12---|-10----10---10----10---|-8-----8---8----8---|-10----10---7~-------|
    |---13-----13---13-----13-|---12----12---12----12-|--10----10--10---10-|---12----12-8~-------|
    |-----12----------12------|-----12---------12-----|----10--------10----|-----12-----9~-------|
    |-------------------------|-----------------------|--------------------|---------------------|
    |-------------------------|-----------------------|--------------------|---------------------|
    |-------------------------|-----------------------|--------------------|---------------------|
    GtrII
    |------0----------0-------|-----0---------0-------|--------------------|------3--------------|
    |--------1----------1-----|-------3---------3-----|-----1---------1----|-------0----0~-------|
    |----------2----------2---|---------0---------0---|-------2---------2--|------------0~-------|
    |---2-----------2---------|-----------------------|---------3--------3-|----0----------------|
    |-0-----------0-----------|---2---------2---------|---3---------3------|---------------------|
    |-------------------------|-0---------0-----------|-1---------1--------|-3-------------------|
    
    Chorus-
    GtrI
    |-----------------------------------------------------------------|
    |-5-3-0-1~---------------------5-3-0-1~---------------------------|
    |-5-4-0-0~---------------------5-4-0-2~---------------------------|
    |-7-5-2-2~---------------------7-5-2-3~---------------------------|
    |-------3~--------------------------------------------------------|
    |-----------------------------------------------------------------|
    
    GtrI
    |-----------0-------0-------0--------------------------------------------|
    |-5-3-0-1-1--1--1-1---1--1-1-1---5-3-0-----------------------------------|
    |-5-4-0-0-----0-0------0-0----0--5-4-0------2-----------2-----------2----|
    |-7-5-2-2------------------------7-5-2-0h2-2--2p0--0h2-2--2p0-0h2-2--2p0-|
    |-7-5-2-3------------------------7-5-2-----------------------------------|
    |-5-3-0--------------------------5-3-0-----------------------------------|
    
    GtrI
    |-----------------------------------------------------------------|
    |-5-3-0-1~---------------------5-3-0------------------------------|
    |-5-4-0-0~---------------------5-4-0------------------------------|
    |-7-5-2-2~---------------------7-5-2------------------------------|
    |-------3~--------------------------------------------------------|
    |-----------------------------------------------------------------|
    GtrII
    |-----------0-------0-------0------------|
    |-5-3-0-1-1--1--1-1---1--1-1-1---5-3-0---|
    |-5-4-0-0-----0-0------0-0----0--5-4-0---|
    |-7-5-2-2------------------------7-5-2---|
    |-7-5-2-3------------------------7-5-2---|
    |-5-3-0--------------------------5-3-0---|
    
    Do…
  • Tuning: Standard EADGBe
    
    Chords used:
    E -    022100
    B -    x24442
    C#m -  x46654
    A -    x02220
    F#m -  244222
    G#m -  466444
    B/Eb - x698xx
    
    
    Verse 1:
                 E
    How can they say
    there is one way when…
  • Tuning: Standard EADGBe
    
    Chords used:
    Eb -   x68886
    Bb -   x13331
    Cm -   x35543
    G# -   466544
    Gm -   355333
    Bb/D - x587xx
    F -    133211
    
    
    Intro: Eb-- x2  
    
     
    Verse 1:
                Eb
    It's really hard…
  • Tuning: Drop D
    
      Verse
    e|-----------------------------|
    B|-----------------------------|
    G|-----------------------------|
    D|-12-13--7-8---12-13--77-88---|
    A|-10-10--5-5---10-10--55-88---|
    D|-10-10--5-5---10-10--55-88---|…
  • Intro: Eb  Cm  Bb  G#  Cm  Bb }x2 
      
    Verse 1: 
     Eb  
    I feel happy I feel sad 
    I feel like running 
    through the walls 
    I'm overjoyed I'm undecided 
    I don't know who I am 
     Cm  
    Well maybe I'm not perfect 
     G#…
  • Tuning: Standard on both guitars
    
    Chords used:
    
    Ebm -   x68876
    F#-     244322    
    B-      x24442   
    G#m -   466444 
    F#/Bb - 143xxx
    
    
    Intro:
    
    Part 1:
    
    Guitar 1:
    e|-------14-------14-|-------16-------16-|-------14-------14-
    B|----12-------12----|----12-------12----|----12-------12----
    G|-15-------15-------|-15-------15-------|-15-------15-------
    D|-------------------|-------------------|-------------------…
  • Chords used:
    Am7-  x02120
    E-    022100
    B-    x24442
    G#m-  466444
    A-    577655 or x02220
    B/D#- x644xx 
    
    Intro: Am7-E-B (x2)
    
    Verse 1:
    Am7              E
      I've hoped for change
            B           Am7
    it gets…
  • VERSE:
    G
    I climb I slip I fall,
    reaching for your hands,
    Em
    but I lay here all alone,
    sweating all your blood....
    
    CHORUS:
    D                Am 
    Breathe for love tomorrow,
                    Em
    cause there's no hope,…
  • Tuning: Drop D on all guitars
    
    Chords used for guitar 2:
    Ab5   - 666xxx
    Eb/G  - 565xxx
    F5    - 333xxx
    C#m7  - x465xx
    Eb5   - 111xxx
    C#5   - x466xx
    
    Intro:
    
    Guitar 1:
    e|-8-8--6-6--1-1--3-3----|
    B|-9-9--8-8--3-3--4-4----|
    G|-----------------------|
    D|-----------------------|…
  • Intro: D - G x4; D - G x2
    
    D          D/C#                 G
    Living in a city of sleepless people
    D            D/C#                 G              
    Who all know the limits and won't go too far 
    D     A     G
    outside…
  • chords used :
    F#m - 244222
    F   - 133211
    Asus2 - 002200
    A     - 002220
    Dsus2 - 000230
    Cm  - 335533
    Gm  - 355433
    Bb  - 113311
    
    Intro F#m F
    
    Verse 1:
    F#m                    F
    I slipped down the stairs
    F#m…
  • Standard: EADGBEe
    
    Intro: Db
     (C            Am
    Now I can move on to facing,
     C        Am     C
    Big girl problems,
                          Am
    No more high school drama,
     G   Dm         G
    Graduated with honors.
    
    (C)…
  • Intro-
    GtrI @0:07
    |------------------------|---------------------------------|
    |------------------------|---------------------------------|
    |-4--1111-66--66-88-66---|---4--1111-66--66-88-66----------|
    |-6--9-9--44--44-66-44---|---6--9-9--44--44-66-44----------|
    |-6--9-9--44--44-66-44---|---6--9-9--44--44-66-44----------|
    |-6--9-9--44--44-66-44---|---6--9-9--44--44-66-44----------|
    
    GtrII
    @0:00
    |------------------------------|------------------------------|
    |------------------------------|------------------------------|
    |-8--1111-1111--1111-1313-1111-|-8--1111-1111--1111-1313-1111-|
    |-6--9-9-----------------------|-6--9-9-----------------------|2x
    |-6--9-9--9-9---9-9--1111-9-9--|-6--9-9--9-9---9-9--1111-9-9--|
    |-6--9-9-----------------------|-6--9-9-----------------------|
    
    
    Verse-
    GtrI
    |-------11~---11~-------9~----9~----|
    |-----9~----9~-------9~-----9~------|
    |--11~------------11~---------------|
    |-----------------------------------|4x
    |-----------------------------------|
    |-----------------------------------|
    GtrII
    |----------------|------9---------|----------------|----------------|
    |-0--7~--0-0-0~--|-0-7-----0-0-0~-|-0-0-7~--0-0-0~-|-0--7~--0-0-0~--|
    |-8--8~--3-4-1~--|-8-8-8---3-4-1~-|-8-9-8~--3-4-1~-|-8--8~--3-4-1~--|
    |----------------|----------------|----------------|----------------|
    |----------------|----------------|----------------|----------------|
    |----------------|----------------|----------------|----------------|
    
    Refrain-
    
    |----0~---0~--0~----0~-----|
    |-0--7~---0~--0~----0~-----|
    |-8--8~---3~--4~----1~-----|
    |--------------------------|
    |--------------------------|
    |--------------------------|
    
    Chorus-
    Gtrs
    |-----------------------------------------------------------------|
    |-----------------------------------------------------------------|
    |-8-8-8-8-8-8-8-8-8-8-8-8-8-8-8-8-4-4-4-4-4-4-4-4-6-6-6-6-6-6-6-6-|
    |-6-6-6-6-6-6-6-6-6-6-6-6-6-6-6-6-2-2-2-2-2-2-2-2-4-4-4-4-4-4-4-4-|2x
    |-6-6-6-6-6-6-6-6-6-6-6-6-6-6-6-6-2-2-2-2-2-2-2-2-4-4-4-4-4-4-4-4-|
    |-6-6-6-6-6-6-6-6-6-6-6-6-6-6-6-6-2-2-2-2-2-2-2-2-4-4-4-4-4-4-4-4-|
    
    
    
    GtrI
    |-----------------------------|----------------------------|
    |-----------------------------|----------------------------|
    |-xxxx-4--1111-66--66-88-66---|---4--1111-66--66-88-66-----|
    |-xxxx-6--9-9--44--44-66-44---|---6--9-9--44--44-66-44-----|2x
    |-xxxx-6--9-9--44--44-66-44---|---6--9-9--44--44-66-44-----|
    |-xxxx-6--9-9--44--44-66-44---|---6--9-9--44--44-66-44-----|
    
    |------------------------------|------------------------------|
    |------------------------------|------------------------------|
    |-8--1111-1111--1111-1313-1111-|-8--1111-1111--1111-1313-1111-|
    |-6--9-9-----------------------|-6--9-9-----------------------|
    |-6--9-9--9-9---9-9--1111-9-9--|-6--9-9--9-9---9-9--1111-9-9--|
    |-6--9-9-----------------------|-6--9-9-----------------------|
    
    Bridge-
    |-11-----11------11--------11-----11------11-------|
    |---12-----12----------------12-----12-------------|
    |------9------9------9-----------------9-----------|
    |--------------------------------------------------|
    |--------------------------------------------------|
    |--------------------------------------------------|
    
    
    |-----7------7---7--7-6----------------|
    |---7------7---7--------7--------------|
    |-8------8----------------6------------|
    |--------------------------------------|
    |--------------------------------------|
    |--------------------------------------|
    
    
    |-11-----11------11--------11-----11------11-------|
    |---12-----12----------------12-----12-------------|
    |------9------9------9-----------------9-----------|
    |--------------------------------------------------|
    |--------------------------------------------------|
    |--------------------------------------------------|
    
    
    |-----7------7---7---6~----------------|
    |---7------7---7-----7~----------------|
    |-8------8-----------6~----------------|
    |--------------------------------------|
    |--------------------------------------|
    |--------------------------------------|
    
    Do…
  • Verse: 
     G                    Em  
    Now when you say you wanna slow down, 
     C                      D  
    Doesn't mean you wanna slow down.. 
     
     G                     Em  
    Maybe you just want a little extra time…
  • Intro: C#/F - F# - G# - Bbm }x3 C#/F - F# - G# (hold) 
           C#/F - F# - G# - Bbm }x3 C#/F - F# - G# - C#
      
    Verse 1: 
     C#/F           F#  
        I've got a life 
              G#  
    out there somewhere  
         Bbm  
    it's…
  • Am        C       G      Em  
    Hello hello is anyone home? 
     Am        C       G           Em  
    Hello hello just pick up the phone 
     
    Am  C  G  Em }x2 
     
     Am        C     G     Em  
    I opened up my life to you 
     Am…
  • Intro: A  F#m G#
    
    F#m   A  
    Down to you you're pushing and pulling me down to you 
     G#  
    But I do not know what I  
     A  
    Now when I caught myself  
     A  
    I had to stop myself  
     F#m  
    From saying something…
  • e 4-3-------            e 4-3-----8-6-| 
     B ----4-4---            B ----4-------| 
     G -----3-3-- x3  then   G -----3------| 
     D ----------            D ------------| 
     A ----------            A ------------| 
     E ----------…
Наверх