Аккорды «Parokya Ni Edgar»

Популярные аккорды Parokya Ni Edgar:
алфавиту | просмотрам | случайно
  • Intro
    
    E------------|------------|
    B------------|------------|
    G------------|------------|
    D----5-4---5-|----5-4-----|
    A---5----5---|---5----5-0-|
    E--5---------|--5---------|
    
    E------------|-------------|
    B------------|-------------|
    G------------|-------------|
    D----5-4---7-|---6-7-5---4-|
    A---5----5---|---------5---|
    E--5---------|-------------|
    
    E-------------------|
    B-------------------|
    G-------------------|
    D----5-4--------4-2-|
    A-0-5-------0-5-----|
    E-------------------|
    
    E-----------------------|
    B-----------------------|
    G-----7-6--4--------4-1-|
    D----7----------2-4-----|
    A---7-------------------|
    E-----------------------|…
  • G          Em7      C9         D
    
    E ---3-------X-------X------X------------------|l
    A ---2-------2-------3-------X-----------------|l
    D ---0-------2-------2-------0-----------------|l
    G ---0-------0-------0-------2-----------------|l
    B…
  • intro/filler/outro: (distortion)
    
    guitar 1
    
    1 -------0--2-3-2-0-2-----------5-3-2-3-2------0---------
    2 -----3--------------3-------------------3---3--3-2-3---
    3 ---2------------------2----/4-------------2------------  2x
    4…
  • Standard tuning: (EADGBE)
    Capo on 2nd fret
    
    Verse:
    
    E------0--2--2-		-0--2--0-0-0-
    B-0/2--0--2--3-		-2--3--0-0-0-
    G-2-2--1--2--2-		-2--2--1-2-1-
    D-2-2--2--4--0-play 3x 	-2--0--2-2-2-
    A-0-0--2--4----		-0-----2-2-2-
    E------0--2----		-------0-0-0-
    
    Chorus:
    
    E-0-0--0--2--2-
    B-0/2--0--3--2-
    G-2-2--1--2--21-
    D-2-2--2--0--42-play…
  • Standard Tuning (EADGBE)
    
    I. Intro.
    
    Gtr. 1 ( C - Am- F- G )
    
    E--0----0----0----0-----0---0---0---0------1----1----0---1-----3---3---0---x--
    B--1----1----0----1-----1---1---0---1------1----1----0---1-----3---3---0---3--
    G--0----0----0----0-----2---2---2---2------2----2----2---2-----4---4---4---4--
    D--2----2----2----2-----2---2---2---2------3----3----3---3-----5---5---5---5--
    A--3----3----3----3-----0---0---0---0------3----3----3---3-----5---5---5---5--
    E------------------------------------------1----1----x---1-----3---3---3---3--
    
    Gtr.…
  • standard tuning (EADGBe)
    
    intro chords:
    A-C#m7-DM7-E  
                             
    intro:                   
    e||--5--------------------0--------5-7-7/9/10-9-5-0---------------------|
    B||----5---3-3-2-2h3-3/5--5/7-5---5-----------------4-3-----------------|
    G||-6---------------------------6------------------------2h4------------|
    D||----------------------------------------------------------2----------|
    A||---------------------------------------------------------------------|
    E||---------------------------------------------------------------------|
    
    Stanza:
    A-C#M7-DM7-E(4X)
    
    Refrain:
    DM7-C#M7-DM7-D-E
    (pluck…
  • Tuning: standard
    Legend: h - hammer
           .. - no definite times to pluck
           
    
    
    *note that riff 2 is played by two fingers, index and middle finger.
    i don't know the right term, index for 'E-A' string ; middle for 'D-G'…
  • standard tuning
     
    intro: C-G-Am-F(2x)
     
        C   G   Am   F
     ---x---3---5----1---
     ---3---5---7----3---
     ---5---5---7----3---
     ---5---4---5----2---
     ---5---3---5----1---
     ---5---3---5----1---
    
       C       G
    It took one look…
  • Chords: C#m - E - B - C#m  
     
    Chorus: 
    nandito na naman kame 
    nagkakantahan sa isang tabi 
    katulad ng dati pagkatapos ng klase 
    lagi kang meron katabing nagsasabi 
     
    wag kang magkakamali 
    palampasin ang sandali…
  • Intro:
    
    ]---------------------------------------|
    ]---------10-9--------------------------|
    ]-------9------9-6-9-8------------------|
    ]--9h11----------------9----------------|
    ]------------------------7--------------|
    ]---------------------------------------|
    
    
    ]---------------------------12----------|
    ]---------10-9------------12------------|
    ]-------9------9-6-9-9s11---------------|
    ]--9h11---------------------------------|
    ]---------------------------------------|
    ]---------------------------------------|
    
    
    ]
    ]---------10-9-------------------------|
    ]-------9------9-6-9-8-----------------|
    ]--9h11----------------9---------------|
    ]------------------------7-------------|
    ]--------------------------------------|
    
    
    ]-------------------12-----------------|
    ]---------10-9------12-----------------|
    ]-------9------9----13-----------------|
    ]--9h11--------------------------------|
    ]--------------------------------------|
    ]--------------------------------------|…
  • Intro:
    E-------------------------------------------------------------------------|
    B--------0--------0h1p0--------0--------0h1p0---------0--------0h1p-------|
    G------0--------0------------0--------0-------------0--------0------------|
    D----0--------2------------0--------2-------------0--------2--------------|
    A-----------3---------------------3----------------------3----------------|
    E--3---------------------3----------------------3-------------------------|
    
    E------------------------0------------------------------------------------|
    B------3-------3-------3--------------------------------------------------|
    G----0------2--------0----------------------------------------------------|
    D--2-----0---------2------------------------------------------------------|
    A----------------3--------------------------------------------------------|
    E-------------------------------------------------------------------------|
    
    Verse:
    E-------------------------------------------------------------------------|
    B--------0--------0h1p0--------0--------0h1p0-----------------------------|
    G------0--------0------------0--------0-----------------------------------|
    D----0--------2------------0--------2-------------------------------------|
    A-----------3---------------------3---------------------------------------|
    E--3---------------------3------------------------------------------------|
    Naiinis…
  • Intro: G-C (4x)
    	 I
    G      C        Bm7 E7sus E7
    Uso pa ba ang harana
    Am7      Bm7        Am7  Dsus D7
    Marahil ikaw ay nagtataka
    G       C         Bm7 
    Sino ba 'tong mukhang gago
            E7sus E7   Am7
    Nagkandarapa sa pagkanta…
  • Stanza 1
        G          Bm         Am       D
    Magdamag nagigitara ang bagal ng gabi
      G           Bm           Am        D
    Ang daming iniisip ngunit wala namang masabi
       G          Bm      Am        D
    Nagsawa ka na ba??…
  • Chords for IntroJTayo na nga?)
    EM7-AM7- EM7-AM7-G#m-C#m-F#m-B7
    
    Solo Intro:
    |----0?0--0-----------------------------------------------------|
    |-------------0---3---2-----------------------------------------|
    |----------------------------2-2-2---1--------------------------|
    |---------------------------------------2-------0----2----------|
    |--------------------------------------------2------------------|
    |---------------------------------------------------------------|
    
    |----0?0--0-----------------------------------------------------|
    |-------------0---3---2---------------------------0-------------|
    |----------------------------2----1----------1---------2---1----|
    |---------------------------------------2-------------------2---|
    |---------------------------------------------------------------|
    |---------------------------------------------------------------|
    
    |----0?0--0-----------------------------------------------------|
    |-------------0---3---2-----------------------------------------|
    |----------------------------2-2-2---1--------------------------|
    |---------------------------------------2-------0----2----------|
    |--------------------------------------------2------------------|
    |---------------------------------------------------------------|
    
    |----0?0--0------------------------------------------------------|
    |-------------0---3---2------------------------------------------|
    |----------------------------2~…
  • G        D           Em             C
      Napatunganga nung bigla kitang nakita 
          G          D          Em-C
    pagkalipas ng mahabang panahon
    G             D                Em        C    
      High School pa tayo nung una…
  • A           AM7          A7           D
    Sorry na kung nagalit ka di naman sinasadya
             A             AM7
    Kung may nasabi man ako init lang ng ulo
         A7                  D
    Pipilitin kong magbago pangako sa iyo…
  • Intro:
    
    --------3--------3------------------------------------|
    ------3------3----------------------------------------|
    ------------------------------------------------------|
    ------------------------------------------------------|
    ------------------------------------------------------|
    ------------------------------------------------------|
    
    tapos…
  • Standard tuning(eBGDAE)
    
    
    Intro:
       A		      E			  F#m		       E 
    e|-------------0-------------------------------------------------4-----4h5-4-----
    B|-----2---3----------------------0---------------2-3-2h3-0--------5---------5---
    G|-------2---2----2-------1---2-----------------2------------------------------4-
    D|---2----------------------2---2---2---------4----------------------------------
    A|-0--------------------2-------------------4------------------------------------
    E|--------------------0-------------------2--------------------0-----0-----------…
  • Intro:
    
        EM7   -   BM7---------------------------------|      -   EM7  -  BM7
    E------7-------3h5h3---------7------3-------------|
    B-----9-------5-------------9--------5------------|
    G----8-------4-------------8----------4-----------|
    D---9-------5-------------9------------5----------|
    A--7-------3-------------7--------------3---------|
    E-------------------------------------------------|
    
    Continue…
  • Am  Em      Dm      G       Am 
    i blamed u 4 being what u r 
        Em          Dm               G                  Am 
    i blamed u 4 what im going thru right now 
         Em       Dm                   G            Am 
    im sorry…
  • intro:
    C-G-C-G-C-G-
    C,C,C-D,D,D-
    
    stanza1:
    C              G    C                G
    naubos na ang barya sa kakayosi at kakabasa
    C                  G         C,C,C-
    ng magazine mong nakahilata dyan sa sala
    C             G…
  • intro:
    
    guitar 1
    
    e|---7----1---
    B|---8----2---
    G|---9----3---   (2x)
    D|---9----3---
    A|---7----1---
    E|---x----x---
    
    guitar 2
    
    e|--------------------------------------------
    B|-7h8-8-8-7h8-8-8-7h8-8/13-13-12----13-12----
    G|--------------------------------12-------12-…
  • Intro: G-Am-C-G
     
     (G-Am-C-G)
     magbukas ka pa ng tuna
     at kukulangin pang isa
     maglabas ka pa ng baso
     at tatagayan ko kayo
     pahingi na man ng yosi
     at paabot ng pansindi
     maghanap ka na ng puwesto
     at tatagayan ko kayo…
  • Intro: A-Bm(4x)
    
    Stanza 1:
            A            Bm
    'Di ba't sinabi mo sa'kin dati na
           A              Bm
    Mahirap kumain ng tsokolatteng
           A                     Bm
    Natunaw at parang wala nang korte
            A…
  • filler during intro(clean passage)
    e-----12----------------------12-----12--------------------------------|
    b---12---10/12-10-9-9/10-10/12-----12--10/12-10-9-9/10--9--9/10------2-|
    g-11-----------------------------11----------------------------11-9-2-|
    d--------------------------------------------------------------------2-|
    a----------------------------------------------------------------------|
    e----------------------------------------------------------------------|
    solo(effects:…
  • solo(effects:Distortion)
    e---------------------------------------------------|
    b-----4--4-5-5s7-7-7-7b--7------4--4-5-4--2-2-2b--2-|
    g--5-5--5--------------------5-5--5-----------------|
    d---------------------------------------------------|
    a---------------------------------------------------|
    e---------------------------------------------------|
    
    e----------------------------------------------------------------|
    b----------------------------------------15b-15-13---15b-15-13---|
    g------------------------12-14b-14-12--12---------14----------14-|
    d-------9---9-10-10s12-14------------14--------------------------|
    a--10-10--10-----------------------------------------------------|
    e----------------------------------------------------------------|
    
    e--------------…
  • intro:(clean passage)
         G           D                C
    e-3--3-----3|-2----3-2-3|-0------0-------------0|
    b-3----3----|-3--3------|-1--0h1---1---1--0h1--1|
    g-0------0--|-2---------|-0----------0---------0|
    d-0---------|-0---------|-2--------------------2|
    a-2---------|-----------|-3--------------------3|
    e-3---------|-----------|-0--------------------0|
    
    e--------------|
    b--------------|
    g--------------|
    d------7~---5~-|
    a--5~--5~---3~-|
    e--3~----------|
    
    1st…
  • Standard Tuning	(EADGBE)
    
    
    E-0--0---2--2---------
    B-0--2---2--3---------
    G-1--2---2--2--6--4---
    D-2--2---4--0--6--4---
    A-2--0---4-----4--2---
    E-0------2------------
    
    GTR 1:
    Intro:
    	E - A (2x)
    
    Verse:
    	E - A (2x)
    	F#m - A…
  • Intro:Em-C-Em-C 
    
    Em
    Meron isang babae na mahilig sa lalake
    
    C
    Walang inatupag kindi magpadale!
    
    Em
    Nakasabay ko sa jeepney
    
    C
    Aking napuna, wala syang panty!
    
    Em
    May nakita nung sya'y nabosohan
    
    C
    Meron syang chikinini…
  • Tuning: Standard (EADGBE)
    
     
    Intro:
    
         A               C#m                  D            A      E
    E|----------0------------------4--------------2------------0--------0-----|
    B|---2------2----2----5------------5---3------3----3---2------0-----------|
    G|---2----2------2----6------6-----6---2----2------2---2-----------1------|
    D|------2------------------6-------6---0--0------0---------------2----2---|
    A|---0---------0---0--4--4-------4---------------------0------------------|
    E|------------------------------------------------------------0-----------|…
  • e------------------------------------------|
    b-----0--0------0--0------0--0------0--0---|
    g----0--0--0---0--0--0---0--0--0---0--0--0-|
    d---2--2--2---1--1--1---0--0--0------------|(repeat one more time)
    a--------------------------------4---4--4--|
    e------------------------------------------|
    (then)
    e-------------------------------------|
    b-------------------------------------|
    g-----3--3------2--2------3--3------2-|
    d----2--2--2---1--1--1---2--2--2---1--|
    a---3--3--3---2--2--2---3--3--3---2---|
    e-------------------------------------|
    
    chords…
  • Chorus:
    		A           Bm
    		Pa-parap-pa-pa-pa-pa-pa
    		A           Bm
    		Pa-parap-pa-pa-pa-pa-pa
    		A           Bm
    		Pa-parap-pa-pa-pa-pa-pa
    		G            D
    		Pa-parap-pap-pap
    
    Stanza 1:
           A        Bm…
  • Note: Original key is one fret (Fm) higher.
    
    
    Intro:
    Em-Gbm-G-A-;
    (4x)
    Stanza 1:
    
    CM7                    Bb
    (Ooh) Dapat nga bang sundin itong bulong ng damdamin
                CM7
    (Hoo-wee-hoo) Wag lang di mo makamit, ito'y…
  • INTRO:
    
    
    e |----7-8-7--7------5-6-5--5---7-8-7--7-----5-6-5--5-----|
    B |-------------8--6----------6----------8-6----------6---|
    G |-------------------------------------------------------|
    D |-------------------------------------------------------|
    A…
  • Tuning (eBGDAE)
    
    Legend:
    
    | h 	Hammer-on
    | p 	Pull-off
    | x 	Mute note/Dead string
    | /	Slide up
    |  	Slide down
    | /// 	Tremolo pick
    | ~	Let ring
    
    Intro:
    Guitar I
    
    e| |--------------------------------------------------------------
    B|…
  • Intro Chords: Am - Dm (paulit-ulit lang 'tol)
    Play this song using your distortion (wak-wak)
    
    
         Am                           Dm
    ---------0--0-0-0-0-0-0--------------------1--1111-------|
    -------1--------------------------------3----------------|
    ------3------------------------------2-------------------|
    ----3-----------------------------0----------------------|
    --0------------------------------------------------------|
    ---------------------------------------------------------|…
  • intro:
    Gm-
    
    Gm
    lumalake ang aming pagkalalake
    pag mayroong magagandang mga babae
    lalo na kung malake ang kanilang
     F
    pusod
    
     Dm                Cm
    mahilig kami sa magaganda
      Dm                 Cm
    katawan ang aming nakikita…
  • Solo (effects: Chorus + Delay)
    
    e ----------------------------------------------------------12*---11*------|
    b --------------9--12--------12--10--9--10--12--10-----12---12*---12*--10*-|
    g --8s9--9--9-9--9---9--8--6----------------------11s13--------------------|
    d…
  • Am                                    Dm
    At first I was afraid to eat a picha pie
    G
    Kept thinking this is not good
    C
    This is a picha pie
    F
    And so I spent so many nights
    Bm
    Just eating my tortang talong
    Em
    And I grew strong…
  • standard tuning: (EADGBE)
    
    Intro:
    
    E-1-1h3p1--1--1--0---------------------
    B-3--------1--3--2---------------------
    G-2--------2--3--2--------0-2-0--------
    D-0--------3--3--2--0-2-3-------3-0----
    A----------3--1--0---------------------
    E----------1---------------------------
    
    Verse:
    
    E--1--1--1--0-
    B--3--1--3--2-
    G--2--2--3--2-
    D--0--3--3--2-play…
  • Intro : DM7
    
    -----------------2--0----------------------------------------|
    -----------------2--2----------------------------------------|
    -------------2-----------------------------------------------|
    ---------0---------------------------------------------------|
    -------------------------------------------------------------|
    -------------------------------------------------------------|
    DM7
    -----------------2--0----------------------------------------|
    -----------------2--2----------------------------------------|
    -------------2-----------------------------------------------|
    ---------0---------------------------------------------------|
    -------------------------------------------------------------|
    -------------------------------------------------------------|
    DM7
    -----------------2--0----------------------------------------|
    -----------------2--2----------------------------------------|
    -------------2-----------------------------------------------|
    ---------0---------------------------------------------------|
    -------------------------------------------------------------|
    -------------------------------------------------------------|
    DM7
    -----------------2--0----------------------------------------|
    -----------------2--2----------------------------------------|
    -------------2-----------------------------------------------|
    ---------0---------------------------------------------------|
    -------------------------------------------------------------|
    -------------------------------------------------------------|
    
    
    Chords…
  • Intro: A - F#m - Dbm - D - E }x2 
     
     A  
    Lagi mong tatandaan 
     F#m  
    na kapag umibig ang isang 
     Dbm                   D    -      E  
    lalake ay handa itong hamakin ang lahat. 
     
     A  
    Gagawin ang lahat ng paraan…
Наверх