Аккорды «Pedro The Lion»

Pedro The Lion
Pedro the Lion was formed by David Bazan in 1995[1] and released its debut EP Whole in April 1997. Bazan played nearly every instrument on the band's first two full-length albums, It's Hard to Find a Friend (1998) and Winners Never Quit (2000). Winners marked Pedro the Lion's first concept album.[2] After its completion, Bazan has claimed he initially decided not to continue writing concept albums.[2] However, in the process of writing his next full-length Control, he realized he had inadvertently… Читать полностью... Pedro the Lion was formed by David Bazan in 1995[1] and released its debut EP Whole in April 1997. Bazan played nearly every instrument on the band's first two full-length albums, It's Hard to Find a Friend (1998) and Winners Never Quit (2000). Winners marked Pedro the Lion's first concept album.[2] After its completion, Bazan has claimed he initially decided not to continue writing concept albums.[2] However, in the process of writing his next full-length Control, he realized he had inadvertently created a narrative link "about 70% of the way through [the album]" and decided to finish it in the same vein.[2] The album's thematic content criticizes American capitalism, which Bazan notes was largely inspired by the sentiments surrounding the World Trade Organization protests in 1999.[2] Control also saw Casey Foubert of Seattle-based Seldom join Pedro the Lion to play the drums and keyboard. He additionally co-wrote "Penetration" and "Second Best", the third and eighth tracks, respectively, on the album, which was released in 2002. Achilles Heel followed, released on May 24, 2004, and marked the beginning of Bazan's partnership with T.W. Walsh as the band's primary writers and musicians.[3] Bazan described the tracks in the third full-length from Pedro the Lion as a return to the songwriting characterized by Friend and the Secure EP in the sense that there was no "pretense of anything bigger", an allusion to his previous concept albums.[2] In early January 2006, Pedro the Lion formally announced that they had split. The split was amicable; Bazan and Walsh continue to be good friends. Bazan said that their friendship has even been strengthened by the breakup.[4] Bazan toured in support of Fewer Moving Parts, his solo debut EP. Walsh returned to his career as a Web application developer[5] and is busy with his band, The Soft Drugs, and their debut release, In Moderation. David Bazan released his debut solo LP, Curse Your Branches, on Seattle-based Barsuk Records in 2009. Скрыть...
Популярные аккорды Pedro The Lion:
алфавиту | просмотрам | случайно
  • note: Chorus is wrong and missing the bridge
    
    INTRO
    e------------|-----------|-----------------|---------------------
    A------------|-----------|-----------------|---------------------
    G---------0--|--------0--|-----------------|---------------------
    D------2-----|-----2-----|--------2--3--2--|--------3--0--2--0---
    A---3--------|--0--------|-----3-----------|-----3---------------
    E------------|-----------|--1--------------|--1------------------…
  • e---------------------------------------------------
    B---------------------------------------------------
    G----0------0-----0-----0-1---1----0-----1------0---
    D------1------1-----1-------1--------1-----1-------1
    A--1------2-----3-----4---------3------2-----1------
    E---------------------------------------------------
    
    
    e---------------------------------------------------
    B---------------------------------------------------
    G----0-----0-----0-------0--------------0------0----
    D------1-----1-----1--------1----5--------1------1--
    A--1-----2-----1------0------------6--0------1------
    E-----------------------------4---------------------…
  • e---------------------------------------------|
    b---------------------------------------------|
    g---------------------------------------------|
    d-5--4--7--444444-22-444444-22-444-55555-7777-|
    a---------------------------------------------|
    e---------------------------------------------|
    
    e------------------------------------------|
    b------------------------------------------|
    g------------------------------------------|
    d-------444444-22-444444-22-444-55555-7777-|
    a------------------------------------------|
    e------------------------------------------|
    
    e------------------------------------------|
    b------------------------------------------|
    g------------------------------------------|
    d-------444444-22-444444-22-444-55555-7777-|
    a------------------------------------------|
    e------------------------------------------|
    
    repeat…
  • e-----------------------------------------
    B-----------------------------------------
    G-----------------------------------------
    D-----------------------------------------
    A--1--3--4--6--8--9--8--4--6--8--4--6--3--
    E-----------------------------------------
    
    Or…
  • D-riff:
    D |--12--11--|               G|--7--6--|
    A |---9---9--|       or      D|--4--4--| 
    E |--10--10--|               A|--5--5--|
    
    A riff:
    G |---X--14--|               B|--X--10--|
    D |--11--11--|      or       G|--6---6--|
    A…
  • Standard tuning
    
    Cb5-89xxxx
    C5 -810xxxx
    G5 -355000
    G  -355433
    
    Intro:
    
    G|---4-----4-----------------|
    D|----------------9-----9----|
    A|---------------------------|
    E|33---333---3s88---888---8--|    repeat 4 times
    
    Verse:
    
    (turn…
  • Standard Tuning
    
    
    Chord Shapes:
    
      G   D  Em7  A  Am   B  Asus4
    
    --3---3---0---0---0---2----0-----
    --3---2---3---2---1---2----3-----
    --0---3---0---2---2---4----2-----
    --0---0---2---2---2---4----2-----
    --2---x---2---0---0---2----0-----
    --3---x---0---x---x---x----x-----
    
    
    Ok…
  • e---------        e-----------
    B---------        B-----------
    G---------  X 4   G-----------  X 4
    D------7--        D------5----  
    A--6-6----        A--6-6------
    E---------        E-----------
    
    
    e-----------------------------------------------
    B-----------------------------------------------
    G-----------------------------------------------
    D-5---1--6--5--5--1--6--------------------------
    A----------------------66666666-5555-66666666---
    E-----------------------------------------------…
  • e-----|----|----|----|----|----|-----
    B-----|----|----|----|----|----|-----
    G-----|----|----|----|----|----|-----
    D---5-|--7-|--3-|--0-|----|----|-----
    A---3-|--5-|--1-|--1-|--6-|--8-|--9--
    E-----|----|----|----|--4-|--6-|--7--…
Наверх