Аккорды «Pennywise»

Pennywise
С 1987 года вокалист Jim Lindberg, басист Jason Thirsk, ударник Byron McMackin и гитарист Fletcher Dragge старательно пытались пролезть на панк-роковую стезю. В Калифорнии с этим бывает немного проблем - и уже в 1989 году Pennywise (чье название произошло благодаря одному из героев романа Стивена Кинга "Оно") записывали свои первые песни, из которых был составлен мини-альбом ‘A Word From The Wise'. Спустя год пути Pennywise и Bad Religion пересеклись. Калифорния потихоньку навостряла ушки в сторону… Читать полностью... С 1987 года вокалист Jim Lindberg, басист Jason Thirsk, ударник Byron McMackin и гитарист Fletcher Dragge старательно пытались пролезть на панк-роковую стезю. В Калифорнии с этим бывает немного проблем - и уже в 1989 году Pennywise (чье название произошло благодаря одному из героев романа Стивена Кинга "Оно") записывали свои первые песни, из которых был составлен мини-альбом ‘A Word From The Wise'. Спустя год пути Pennywise и Bad Religion пересеклись. Калифорния потихоньку навостряла ушки в сторону нового панк-саунда, родоначальниками которого были Bad Religion. Неудивительно, что на лейбле Epitaph Records в 1991 году вышло сразу два релиза групп, играющих в том же самом стиле - это были NOFX (с альбомом 'Ribbed') и Pennywise с одноименным лонгплеем. 14 беззаботных тинейджерских скейт-панковых песен не сделали их звездами, но сыграли важную роль в становлении феномена Epitaph-тусовки. С годами крепло мастерство, да и лирика группы росла не по дням, а по часам - с типичных панк-шаблонов до более социально-озабоченной лирики, 'Unknown Rood' и ‘About Time’ мало отличаются друг от друга, но второй вышел уже во времена панк-бума и Pennywise смогли себя почувствовать почти рок-звездами. "Сегодня NOFX и Pennywise для молодежи - это то же самое, что Poison и Def Leppard десять лет назад', - с горечью, смешанной с гордостью, произнес один из калифорнийских панк-рокеров. И надо сказать, что в США конца девяностых эти слова почти истинны. Пошедшие деньги внесли сумятицу в ряды коллектива, и Jason Thirsk был изъят из состава за то, что слишком много злоупотреблял нездоровым образом жизни в ущерб творчеству. Спустя пару месяцев - в июле 1996 - его нашли мертвым. Полиция зафиксировала самоубийство, но музыканты Pennywise уверяли, что такая жизнерадостная личность никогда бы не смогла застрелиться. С другой стороны они чувствовали за собой вину: “Если бы мы его не выгнали, возможно, он был бы еще жив". Черный альбом 'Full Circle', записанный с новым басистом Randy Bradbury, был посвящен памяти покойного друга. Музыкально он отличается еще более металлизированным и слаженным саундом нежели предшественники. 'Full Circle' многие критики назвали лучшим творением Pennywise. Хотя, объективно говоря, его выделяет лишь более богатое продюсирование и виртуозная (по панковым меркам) сыгранность. В остальном же материал диска ни капельки не отличается от всего того, чем страдал квартет предыдущие шесть лет. То же самое можно заявить без обиняков об их самом новом скейт-коровом кругляше - компакт-диске 'Straight Ahead'. До недавнего времени группа продолжала придерживаться строгому распорядку - по альбому каждые два года! Тенденция изменилась с выходом нового альбома Reason to Believe, который был выпущен спустя 2 года и 7 месяцев после предыдущего альбома The Fuse. Eвропейский релиз Reason to Believe состоялся 24 марта 2008 года в очередной раз дав понять, что группа полна творческих сил и продолжает придерживаться своего, отточенного годами стиля. Музыка Pennywise никогда не носила не себе клейма оригинальности, но справедливости ради надо заметить, что это один из самых стабильных и профессиональных панк-коллективов нашей эры, за что и любим тысячами фэнов по обе стороны Атлантики. В конце августа 2009 года, после 19 лет и 9 альбомов, записанных с группой, вокалист группы Jim Lindberg заявил о своём уходе из группы. Дискография: A Word From The Wise (ЕР) - 1989 Wildcard (ЕР) - 1990 Pennywise - 1991 Wildcard / A Word From The Wise (live) - 1992 Unknown Road - 1993 About Time - 1995 Full Circle - 1997 Straight Ahead - 1999 Live @ The Key Club (live) - 2000 Land of the Free? - 2001 From the Ashes - 2003 The Fuse - 2005 Reason to Believe - 2008 Скрыть...
Популярные аккорды Pennywise:
алфавиту | просмотрам | случайно
  • Intro
    e|--------------------------------------------------------------------|
    B|--------------------------------------------------------------------|
    G|--------14-12-------------14-15-----------------------------------
    D|-5-5-5------------13-13-13------------------------------------------
    A|-5-5-5--12-10----13-13-13-12-13------------------------------------
    E|-3-3-3------------11-11-11------------------------------------------…
  • Tuning:EADGBE
    
    Verse(here are the chords, listen to the CD for the rhythm)
    
    e|---------------------------------------------------------------------------|
    B|---------------------------------------------------------------------------|
    G|---------------------------------------------------------------------------|
    D|-------5-------------------------------------------------------------------|
    A|--2----3----5----7----5----------------------------------------------------|
    E|--0---------3----5----3----------------------------------------------------|
    
    Chorus
    
    e|---------------------------------------------------------------------------|
    B|---------------------------------------------------------------------------|
    G|---------------------------------------------------------------------------|
    D|---------55----------------------------------------------------------------|
    A|---22----33---55----77----2-------5----7----5----2-------------------------|
    E|---00---------33----55----0-------3----5----3----0-------------------------|
    
    Breakdown…
  • intro
    G----------------------------------------------------------------
    D----------------------------------------------------------------
    A--------------3-11-111-111-11-0--------------3--------66-888----x2
    E-33-333-333-33-----------------11-111-111-11--33-3333-----------…
  • Tuning: e B G D A E
        
        Intro: 1x
    e|---------------------------------------------------------------------------|
    B|---------------------------------------------------------------------------|
    G|-------------7-7-9-7---------------7-7-9-11---------------7-7-9-7-----7-4--|
    D|-9-9---5-5---7-7-9-7---9-9---5-5---7-7-9-11---9-9---5-5---7-7-9-7---9-7-4--|
    A|-9-9---5-5---5-5-7-5---9-9---5-5---5-5-7--9---9-9---5-5---5-5-7-5---9-5-2--|
    E|-7-7---3-3-------------7-7---3-3--------------7-7---3-3-------------7------|…
  • Tuning: Standard
    
    e|-------------------------------------------------------------------------|
    B|-------------------------------------------------------------------------|
    G|-------------------------------------------------------------------------|
    D|-----------------1-1-1----------------------------1-1-1-1-66-55-3--------|
    A|-------4-4-4-3-3------------------------4-4-4-3-3---------66-55-3--------|
    E|-1-1-1-----------------4-4-4-3-3--1-1-1-------------------44-33-1--------|…
  • verse:
    
    E:------------------------------------------------------
    D:------------------------------------------------------
    A:-5-5-5--8-3-3-3-3-------------------------8--8--8--8--
    E:-------------------5-5-4-3-3-3-5-1-1-1-1--------------
    
    chorus:
    
    G:----------------------------------------
    D:----------------------------------------
    A:--5-5-5-5-3-3-3-3-----------8--8--8--8--
    E:------------------3-3-3-3---------------
    
    
    bridge:
    
    
    G:------------------------------
    D:------------------------------
    A:--5-5-5-5-5-5-5-7-7-7-7-7-7-7-
    E:------------------------------
    
    
    outro:
    
    
    G:--------------------------------------------------
    D:--------------------------------------------------
    A:--5-5-5-5-5-5-3-3-3-3-3-3-------------------------
    E:--------------------------3-3-3-3-3-3-1-1-1-1-1-1-…
  • Intro/Verse:
    E|--------------------------------------------------|
    B|--------------------------------------------------|
    G|--------------------------------------------------|
    D|--7/9-x-------------------7/9-x-------------------|
    A|--7/9-x-------------------7/9-x-------------------|
    E|--5/7-x-7*-7*-7*-7*-7*-7*-5/7-x-7*-7*-7*-7*-7*-7*-|
    
    E|-------------------------------------------|
    B|-------------------------------------------|
    G|-------------------------------------------|
    D|--75-x-------------------x-2-2-22-7-7-77--|
    A|--75-x-------------------x-2-2-22-7-7-77--|
    E|--53-x-3*-3*-3*-3*-3*-3*-x-0-0-00-5-5-55--|
    
    Intro/Chorus:
    E|--------------------------------------|
    B|--------------------------------------|
    G|--------7--------7--------7--------7--|
    D|--9-999-7-9-99-9-7-5-55-5-7-7-77-7-7--|
    A|--9-999-5-9-99-9-5-5-55-5-5-7-77-7-5--|
    E|--7-777---7-77-7---3-33-3---5-55-5----|
    
    E|--------------------------------------|
    B|--------------------------------------|
    G|--------7--------7--------7-9-9999-7--|
    D|--9-999-7-9-99-9-7-5-55-5-7-9-9999-7--|
    A|--9-999-5-9-99-9-5-5-55-5-5-7-7777-5--|
    E|--7-777---7-77-7---3-33-3-------------|
    
    E|--------------------------------------|
    B|--------------------------------------|
    G|--------7--------7--------7--------7--|
    D|--9-999-7-9-99-9-7-5-55-5-7-7-77-7-7--|
    A|--9-999-5-9-99-9-5-5-55-5-5-7-77-7-5--|
    E|--7-777---7-77-7---3-33-3---5-55-5----|
    
    
    E|--------------------------------------|
    B|--------------------------------------|
    G|--------7--------7--------7--------7--|
    D|--9-999-7-9-99-9-7-5-55-5-7-7-77-7-7--|
    A|--9-999-5-9-99-9-5-5-55-5-5-7-77-7-5--|
    E|--7-777---7-77-7---3-33-3---5-55-5----|
    
    E|------------------------------|
    B|------------------------------|
    G|--------99-99-99-99-99-99-99--|
    D|2-2-22--99-99-99-99-99-99-99--|
    A|2-2-22--77-77-77-77-77-77-77--|
    E|0-0-00------------------------|
    
    Bridge:
    E|--------------------------------------|
    B|--------------------------------------|
    G|-----------------------------------9--|
    D|--x-9-7-5-5-7-5-2----x-9-7-5-5-7-5-9--|
    A|--x-9-7-5-5-7-5-2----x-9-7-5-5-7-5-7--|
    E|--x-7-5-3-3-5-3-0----x-7-5-3-3-5-3----|
    
    E|-----------------------------------|…
  • verse:
    e-|-----------|---------------------------------------------------------
    B-|-----------|---------------------------------------------------------
    G-|-8----8----|-------3-5-5-5---------------3-5-3-5-8-8-8-------3-5-5-5-
    D-|-8----8----|-5-5-5-3-5-5-5-3-3-3-3-5-5-5-3-5-3-5-8-8-8-5-5-5-3-5-5-5-
    A-|-6----6----|-5-5-5-1-3-3-3-3-3-3-3-5-5-5-1-3-1-3-6-6-6-5-5-5-1-3-3-3-
    E-|-----------|-3-3-3---------1-1-1-1-3-3-3---------------3-3-3---------…
  • *Intro p1-2x                  
    E ------------------------------------------------
    B ------------------------------------------------
    G -----------------------------3-3----------------
    D -4-4-xxxx-4-4-xxxx-5-5-xxxx------5-5------------
    A…
  • Intro: 1x
    e|---------------------------------------------------------------------------|
    B|---------------------------------------------------------------------------|
    G|--------7-8-7-------8-1010101010--------7-8-7------------------------------|
    D|--55555-7-8-7-88888-8-1010101010--55555-7-8-7-88888-33-8-7-----------------|
    A|--55555-5-6-5-88888-6--8-8-8-8-8--55555-5-6-5-88888-33-8-7-----------------|
    E|--33333-------66666---------------33333-------66666-11-6-5-----------------|…
  • -Intro :4X(Bass) 
    G--------------------------------------------------------------------|
    D--------------------------------------------------------------------|
    A--------------------------------------------------------------------|
    E--5-5-5-0-4-5-5-5-5-4-2-2-2-0-1-2-2-2-2-1-0-0-0-0-1-2-2-2-0-4-5-5---|
    
    -Chorus…
  • INTRO:
    e-|------------------------------------|
    B-|------------------------------------|
    G-|------------------------------------|
    D-|------------------------------------|
    A-|-3-3-X-X-X-3-3-X-X-X-3-3-X-X-X------|
    E-|-1-1-X-X-X-1-1-X-X-X-1-1-X-X-X-ETC--|
    
    VERSE:
    e-|---------------------|
    B-|---------------------|
    G-|---------------------|
    D-|-----6-6-5-5-----8-8-|
    A-|-3-3-4-4-3-3-6-6-6-6-|
    E-|-1-1---------4-4-----|
    
    CHORUS:
    e-|---------------------------------|
    B-|---------------------------------|
    G-|---------------------------------|
    D-|---------6-8-------------6-8-----|
    A-|-3-3-3-3-4-6-8-7-3-3-3-3-4-6-8-7-|
    E-|-1-1-1-1-----6-5-1-1-1-1-----6-5-|
    
    BRIDGE:
    e-|----------------------|
    B-|----------------------|
    G-|----------------------|
    D-|---------10-8-6-4-6-8-|
    A-|-3-3-3-3--8-6-4-2-4-6-|
    E-|-1-1-1-1--------------|
    
    OUTROTHING
    e-|-------------------------------------|
    B-|-------------------------------------|
    G-|-------------------------------------|
    D-|---------6-6-6-6---------10-10-10-10-|
    A-|-3-3-3-3-4-4-4-4-8-8-8-8--8--8--8--8-|
    E-|-1-1-1-1---------6-6-6-6-------------|…
  • intro :fisrt part............intro.2nd part
    G]--------------------------------------------¦--------------------------------------------
    D]-----------------7-6---------6-4-4-6-7-¦--------------------------------------------
    A]-4-4-4-4-4-4------7-7-7---------------¦-------------------------------------6-7--
    E]---------------------------------------------¦-4-4-x-x-4-4-x-x-4-4-x-x-7--------…
  • Tuning:EADGBE
    
    Guitar 1 verse Repeat x2
    
    e|---------------------------------------------------------------------------|
    B|---0---3---5---7---5---3---0---3---5---7---8---7---0---3---5---7---5---3--0|
    G|---------------------------------------------------------------------------|
    D|---------------------------------------------------------------------------|
    A|---------------------------------------------------------------------------|
    E|---------------------------------------------------------------------------|
    
    Guitar…
  • Intro  
    e-|-----------------------------------------------------------------
    B-|-----------------------------------------------------------------
    G-|-----------------------------------------------------------------
    D-|--5-5-5--10-10-10--3-3--5-5-5------------------------------------
    A-|--5-5-5--10-10-10--3-3--5-5-5------3x----------------------------
    E-|--7-7-7--8--8--8---1-1--3-3-3------------------------------------…
  • Intro:
        B  A  E  G
    e|--------------|                e|-------------|
    B|--------------|                B|-(let ring)--|
    G|--4-----------|  4 times then  G|--4----4-----|    (pickslide)
    D|--4--7--2--5--|…
  • standard tuning
    
    ------------------------------------------------------------------------------
    ------------------------------------------------------------------------------
    -------------------------------------------------------------9-9--8--6--------
    -8-8---11--11---6---8---6---3-3-3-3-----8-8--11-11--6--8--6--9-9--8--6--------
    -8-8---11--11---6---8---6---3-3-3-3-----8-8--11-11--6--8--6--8-8--6--4--------
    -6-6---9---9----4-/-6--4---1-1-1-1-----6-6--9--9---4/-6-4-------------------…
  • Intro:
    
    Guitar 1:                                Guitar 2:
    
    e|-------------------------------------||---------||------|
    b|-------------------------------------||o-------o||------|
    g|--9-16-14-13-7-9-4-16-14-13-7-9-4-9--||---------||------|
    d|-------------------------------------||--2-5-4--||------|
    a|--7-14-12-11-5-7-2-14-12-11-5-7-2-7--||o-2-5-4-o||------|
    E|-------------------------------------||--0-3-2--||------|
    
    Verse…
  • INTRO: 
    e:----------------------------------------------------------------------------- 
    b:----------------------------------------------------------------------------- 
    g:-------5- 5- 5-5- -----------------------------------------------------------…
  • INTRO
    e|---------------------------|
    B|---------------------------|
    G|-------------------------X4|
    D|-3---------6-6-6-6-5-5-5---|
    A|-3---------6-6-6-6-5-5-5---|
    E|-1-2////6--4-4-4-4-3-3-3---|
    
    harmonic ^ slide
    
    INTRO cont.
    e|------------------------------------------------------------|
    B|------------------------------------------------------------|
    G|------------------------------------------------------------|
    D|-1-1-11-11-10-6-6-6-8-10-11--1-1-11-11-10-6-6-6-13-13-13-13-|
    A|-1-1-11-11-10-6-6-6-8-10-11--1-1-11-11-10-6-6-6-13-13-13-13-|
    E|-3-3-9--9--8--4-4-4-6-8--9---3-3-9--9--8--4-4-4-11-11-11-11-|
    
    INTRO…
  • INTRO
    E-|-------------------------------------------------------|
    B-|-------------------------------------------------------|
    G-|---5---7-----------------------------------------------|
    D-|-3-5-5-7-7-7-7-7---------------------------------------|
    A-|-3-3-5-5-7-7-7-7---------------------------------------|
    E-|-1---3---5-5-5-5---------------------------------------|
    
    VERSE
    E-|-------------------------------------------------------|
    B-|-------------------------------------------------------|
    G-|---5---(7)---------------------------------------------|
    D-|-7-5-5-(7)-7-------------------------------------------|
    A-|-7-3-5-(5)-7-------------------------------------------|
    E-|-5---3-----5-------------------------------------------|
    
    CHORUS
    E-|-----------|-------------------------------------------|
    B-|-----------|-------------------------------------------|
    G-|---5---7---|------9-9----------------------------------|
    D-|-3…
  • INTRO                                 INTRO END
     3x                                   on 4th time end on E5 not the F#5
    e|---------------------------|         |---------------|
    h|---------------------------|         |---------------|
    g|4--4-4-2--2-2--------------|…
  • Intro:
    G|---------------------|---------------------|
    D|---------------------|---------------------|
    A|---------------------|-6666-6666-8888-8888-|
    E|-444-6--444-6--444-6-|---------------------|
    
    
    Verse, Chorus, Solo:
    G|-----------|-----------|-----------|---------------|
    D|-----------|-----------|-----------|---------------|
    A|---46---64-|---46---4--|---46---64-|---46-88888888-|
    E|-66---66---|-66---66-6-|-66---66---|-66------------|
    
    
    Bridge:
    G|---------------------|---------------------|
    D|---------------------|---------------------|
    A|-4444-4444-----------|-4444-4444-8888-8888-|
    E|-----------6666-6666-|---------------------|…
  • Tuning: Standard
    
    e|-------------------------------------------------------------|
    B|-------------------------------------------------------------|
    G|--5-------8--10---5-------8--10---5-------8--10--------10----|
    D|--5----6--8--10---5----6--8--10---5----6--8--10---8----10----|
    A|--3----6--6--8----3----6--6--8----3----6--6--8----8----8-----|
    E|-------4---------------4---------------4----------6----------|…
  • intro:
    e-|-------------------------------------|
    B-|-------------------------------------|
    G-|---------------5-7-5---------5-7-5---|
    D-|-7-7-7---7-7-7-3-5-3-5-7-7-7-3-5-3-5-|
    A-|-5-5-5---5-5-5-------3-5-5-5-------3-|
    E-|-------------------------------------|
    
    verse:
    e-|-----------------------------------------------------------|
    B-|-----------------------------------------------------------|
    G-|-------5-7-5---------5-7-5---------5-7-5-------------------|
    D-|-7-7-7-3-5-3-5-7-7-7-3-5-3-5-7-7-7-3-5-3-5-5-5-8-8-5-5-8-8-|
    A-|-5-5-5-------3-5-5-5-------3-5-5-5-------3-3-3-6-6-3-3-6-6-|
    E-|-----------------------------------------------------------|
    
    
    chorus:
    e-|-----------------------------------------------------------------
    B-|-----------------6-6-6-6-6-6-6-6---------------------6-6-----6-6-
    G-|-7-7-7-7-7-7-7-7-5-5-5-5-5-5-5-5-3-3-3-3-3-3-3-3-5-5-5-5-5-5-5-5-
    D-|-7-7-7-7-7-7-7-7-3-3-3-3-3-3-3-3-3-3-3-3-3-3-3-3-5-5-3-3-5-5-3-3-…
  • Intro:                                  verse 1 & 2:
    e-|-----------------------------------|--------------------------------------
    B-|-----------------------------------|--------------------------------------
    G-|-----------------------------------|-------10-10-10-10-9-9-9--------------
    D-|-----------------------------------|-7-7-7-10-10-10-10-9-9-9-10-10-10-10--
    A-|---8-7-----8-7------8-7-8-10-8-7---|-7-7-7--8--8--8--8-7-7-7-10-10-10-10--
    E-|-5-----8-5-----8--5--------------8-|-5-5-5--------------------8--8--8--8--
    
    
    e-|--------------------------------------------------------------------------
    B-|--------------------------------------------------------------------------
    G-|-------10-10-10-10-9-9-9----------------10-10-10-10-9-9-9-----------------
    D-|-7-7-7-10-10-10-10-9-9-9-10-10-10-7-7-7-10-10-10-10-9-9-9-10-10-10-10-7-7-
    A-|-7-7-7--8--8--8--8-7-7-7-10-10-10-7-7-7--8--8--8--8-7-7-7-10-10-10-10-7-7-
    E-|-5-5-5--------------------8--8--8-5-5-5--------------------8--8--8--8-5-5-…
  • ***INTRO---(BASS)PLAY TWICE
    the intro is done on bass and still plays through the whole song 
    |---------------------------------------------------------------|
    |---------------------------------------------------------------|…
  • Part 1
    ------
    
    e|--------------------------------------------------------|
    B|--------------------------------------------------------|
    G|--------------10----9------------------9----10----12----|
    D|----12--------10----9---10---12--------9----10----12----|
    A|----12---------8----7---10---12--------7----8-----10----|
    E|----10------------------8----10-------------------------|
    Part…
  • verse:
    e-|---------------------------------------------------------|
    B-|---------------------------------------------------------|
    G-|-------------5-5-7-7-7-7-5-5-------------5-5-7-7-7-7-5-5-|
    D-|-5-5-5-5-5-5-3-3-5-5-5-5-3-3-5-5-5-5-5-5-3-3-5-5-5-5-3-3-|
    A-|-3-3-3-3-3-3-----------------3-3-3-3-3-3-----------------|
    E-|---------------------------------------------------------|
    
    
    pre…
  • Riff 1
    G|---------------------------------------------------------------|
    D|---------------------------------------------------------------|
    A|-------4---7-7-7-0---3-3-3-3---3---3---------------------------|
    E|-5-5-5---------------------------3---3-------------------------|
    
    G|---------------------------------------------------------------|
    D|---------------------------------------------------------------|
    A|-------4---7-7-7-0---10-10-10-10---10--10----------------------|
    E|-5-5-5-------------------------------10--10--------------------|
    
    Riff…
  • RIFF 1
    G:--------------
    D:--------------
    A:44------------
    E:---55-22-5457-
    
    RIFF 2
    G:---------------------
    D:--6------------------
    A:44-4---7----4--------
    E:-----55-5-22-2-54574-
    
    RIFF 3
    G:---------
    D:---------
    A:44444444-
    E:---------
    
    RIFF…
  • intro
    D|10101010----131311111111----1515|
    A|--------1111------------1313----|REPEAT AS NEEDED
    E|--------------------------------|
    
    D|--------------------------|
    A|1010--1111--1010--1111--88|
    E|-8-8---9-9---8-8---9-9--66|
    
    D|------------------------------------------------------------
    A|10101010101010101111111188881010101010101010111111113131313-
    E|8-8-8-8-8-8-8-8-9-9-9-9-66668-8-8-8-8-8-8-8-9-9-9-911111111-
    
    D|--------------------------------------------------------------
    A|10101010101010101111111188881010101010101010--11-1111-13-1313-
    E|8-8-8-8-8-8-8-8-9-9-9-9-66668-8-8-8-8-8-8-8---9---9-9-11-1111-
    
    D|-------------------------------------------------------------------------
    A|101010--111111--11--1111--101010--131313-13-1313-101010--111111--11--1111
    E|-8-8-8---9-9-9---9---9-9---8-8-8--111111-11-1111--8-8-8---9-9-9---9---9-9
    
    D|88-8-88-10-1010-8-10-|
    A|66-6-66--8--8-8-6--8-|
    E|---------------------|
    
    VERSE
    IT…
  • Tuning:EADGBE
    
    Intro
    
    e|---------------------------------------------------------------------------|
    B|---------------------------------------------------------------------------|
    G|---------------------------------------------------------------------------|
    D|-------------------------------5---7---2-----------------------------------|
    A|---222----555----777----222----3---5---0----2------------------------------|
    E|---000----333----555----000-----------------0------------------------------|
    
    Verse
    
    e|---------------------------------------------------------------------------|
    B|---------------------------------------------------------------------------|
    G|---------------------------------------------------------------------------|
    D|------------------------------5555555----7777777---------------------------|
    A|---222----55555/777----222----3333333----5555555----2----------------------|
    E|---000----33333/555----000--------------------------0----------------------|
    
    e|---------------------------------------------------------------------------|
    B|---------------------------------------------------------------------------|
    G|---------------------------------------------------------------------------|
    D|----------------------55555----77777---------------------------------------|
    A|----22222----55555----33333----55555-----2---------------------------------|
    E|----00000----33333-----------------------0---------------------------------|
    
    Interlude…
  • Intro, Fill:
    G|---------9------|
    D|-----------10---|
    A|-7--/7--------7-|
    E|---0------------|
    
    
    Verse:
    G|------------------------------|
    D|------------------------------|
    A|---53-53---53-75---53-53---57-| (x2)
    E|-0-------0-------0-------0----|
    
    
    Pre-Chorus:
    G|---------------------------------|
    D|---------------------------------|
    A|---53-53---53-75---53-53---53-7--|…
  • verse
    G]---------------------------------------------------------------------------
    D]---------------------------------------------------------------------------
    A]-5-5-5-5--8-8-8-8--3-3-3-3--5-5-8-10-8------------------------
    E]---------------------------------------------------------------------------…
  • Intro
    
    |-------|
    |-------|
    |-------|
    |-12-12-|
    |-10-10-|
    
    |--------------------------------------|   |---------------------|
    |--------------------------------------|   |---------------------|
    |--------------------------------------|…
  • Intro(palm mute very quiet)
    e|------ -------------------------------------------------------------|
    B|--------------------------------------------------------------------|
    G|------------------------------6666-8888-----------------------------|
    D|-33333333--66666666--88888888-6666-8888-----------------------------|
    A|-33333333--66666666--88888888-4444-6666-----------------------------|
    E|-11111111--44444444--66666666---------------------------------------|
    
    2nd…
  • intro:
    e-|--------------|--------------------------------------------
    B-|--------------|--------------------------------------------
    G-|-7-10-10-10-7-|-7-7-7-7-10-9-9-5-5-5-7-7-10-10-12-12-14-14-
    D-|-7-10-10-10-7-|-7-7-7-7-10-9-9-5-5-5-7-7-10-10-12-12-14-14-
    A-|-5--8--8--8-5-|-5-5-5-5--8-7-7-3-3-3-5-5--8--8-10-10-12-12-
    E-|--------------|--------------------------------------------
    
    e-|--------------------------------------|
    B-|--------------------------------------|
    G-|-7-7-7-7-10-9-9-5-5-5-5-3-3-3-3-2-----|
    D-|-7-7-7-7-10-9-9-5-5-5-5-3-3-3-3-2-3-3-|
    A-|-5-5-5-5--8-7-7-3-3-3-3-1-1-1-1-0-3-3-|
    E-|----------------------------------1-1-|
    
    verse:
    e-|----------------------------------------------------------------------
    B-|----------------------------------------------------------------------
    G-|-7-7-7-7-10-9-9-5-5-5-5-7-7-7-7-10-9-9-5-5-5-5-7-7-7-7-10-9-9-5-5-5-5-
    D-|-7-7-7-7-10-9-9-5-5-5-5-7-7-7-7-10-9-9-5-5-5-5-7-7-7-7-10-9-9-5-5-5-5-
    A-|-5-5-5-5--8-7-7-3-3-3-3-5-5-5-5--8-7-7-3-3-3-3-5-5-5-5--8-7-7-3-3-3-3-
    E-|----------------------------------------------------------------------
    
    e-|---------------|
    B-|---------------|
    G-|-3-3-3-3-2-----|
    D-|-3-3-3-3-2-3-3-|
    A-|-1-1-1-1-0-3-3-|
    E-|-----------1-1-|
    
    chorus:
    e-|------------------------------------------
    B-|------------------------------------------
    G-|-7-7-7-7-10-10-10-10----------------------
    D-|-7-7-7-7-10-10-10-10--8-8-8-8-10-10-10-10-repeat…
  • Intro/Verse	      Repeat 4x
    G:----------------------------|
    D:--------------------33------|
    A:--------55555-11111---33----|
    E:--33333---------------------|
    
    
    Chorus							
    G:---------------------------------------------------------------------|
    D:----------------------------------------------------------(3)(3)-----|
    A:-------3/55555-3/11111--333333--------3/55555-3/11111-3333------3333-|
    E:-33333-------------------------33333---------------------------------|
    
    Change					Play…
  • intro & chorus                                      x2
    
    G]---------------------------------------------------------------------------
    
    D]---------------------------------------------------------------------------
    A]-------------7-7--------------------7-9-7----------------7-7----------
    E]-9-9--5-5-------7-7--9-9--5-5---------7-9-9--5-5--------7-7----…
  • INTrO ANd VerSE aNd StUFF
    G:---------------------------------------------------------------
    D:---------------------3-2-----------------------------------------
    A:---5>--8-7-5555--3>-------5>----------------------------
    E:---------------------------------------------------------------
    
    CHORuS
    G:---------------------------------------------------------------
    D:---------------------------------------------------------------
    A:-------8>---5>-TIMES…
  • It's What You Do With It
    
    e-|------------------------------------------|
    B-|------------------------------------------|
    G-|-5-5-5-4-------------5-5-5-4--------------|
    D-|-5-5-5-4-5-7-7-7-7-7-5-5-5-4-5-7-7-7-7-7--|
    A-|-3-3-3-2-5-7-7-7-7-7-3-3-3-2-5-7-7-7-7-7--|
    E-|---------3-5-5-5-5-5---------3-5-5-5-5-5--|
    too…
  • Tuning:EADGBE
    
    Intro (repeat x2)                             Then play this
    
    e|---------------------------------------------------------------------------|
    B|---------------------------------------------------------------------------|
    G|---------------------------------------------------------------------------|
    D|---------------------------------------------------------------------------|
    A|----444-------777-------999----777----444----444----7----4----7------------|
    E|----222xxx----555xxx----777----555----222----222----5----2----5------------|
    
    e|---------------------------------------------------------------------------|
    B|---------------------------------------------------------------------------|
    G|---------------------------------------------------------------------------|
    D|---------------------------------------------------------------------------|
    A|----777----9----7----9-----444----7----4----7----2-------------------------|
    E|----555----7----5----7-----222----5----2----5----0-------------------------|…
  • G:------------------------------------------------------------------------------
    D:------------------------------------------------------------------------------
    A:-7-7-7-7-7-7-7--9-5-5-5-5-5-5-5-5-7-7-7-7--9-10-5-5-5-5-5-5-5-5--7-7-7-7-
    E:------------------3-3-3-3-3-3-3-3---------------3-3-3-3---------------------
    
    G:---------------------------------------------------------------
    D:---------------------------------------------------------------
    A:-7-7-7--9-5-5-5-5-5-5-5-5-2-2-2-2-2-2-2-2-5-2-0-5-7--7--7--
    E:----------3-3-3-3-3-3-3-3-------------------------------------
    
    G:------…
  • Intro & chorus:
    
    G:---------------------------------------------------------------
    D:---------------------------------------------------------------
    A:-0-0-x-x-2-3-3---5--0-0-x-x-2-3-3-3----------------------------
    E:---------------3--------------------0-1-0-1-0------------------
    
    x=click,…
  • verse
    
    G]---------------------------------------------------------------------------
    D]---------------------------------------------------------------------------
    A]-----4-4------------------4-4--------4------4-4------------3-3-3-3-3-3-3-3
    E]-1-1----4-4--6-6--1-1-----4-4-6---1-1------4-4--6-6----------------------…
  • Intro 2x
    G----------------------------------------------------------------------------
    D----------------------------------------------------------------------------
    A--2--0--10--9--7------------------------------------------------------------
    E----------------------------------------------------------------------------
    
    Pre…
  • INTRO/BRIDGE                                
    * = Play 10 times
    G-|---------------------------------|------------|
    D-|---------------------------------|------------|
    A-|-99999999-1010101010101010--(x3)-|3(slide)13*-|
    E-|---------------------------------|------------|
    
    VERSE…
  • Tuning:E B G D A E
           v o e u t a
           e d t m   s
           r y s p   t
           y     e   e
                 d   r   
    
    
    inro:guitar 1
       E5       C5       G5       F#/D?
    e|---------------------------------------------------------------------------
    B|---------------------------------------------------------------------------
    G|----------5-555555---------------------------------------------------------
    D|-2-222222-5-555555-5-555555------------------------------------------------
    A|-2-222222-3-333333-5-555555-5-555555---------------------------------------
    E|-0-000000----------3-333333-2-222222-reapeat…
  • intro/verse:
    A-|-2-2-2-------------------2-2-2-------7-7-7-5-7-
    E-|-------3-3-3-0-0-0-3-3-3-------3-3-3-----------
    
    pre-chorus
    A-|-2-2-2-2-5-5-5-5-----------------
    E-|-----------------3-3-3-3-5-5-5-5-
    
    chorus:
    A-|-----------------2-2-2-2-2-2-2-2-----------------2-----------------------
    E-|-2-2-2-2-2-2-2-2-----------------2-2-2-2-2-2-2-2-------2-2-2-2-2-2-2-2---
    
    A-|-2-2-2-2-2-2-2-2---------------------------------2-2-2-------------------
    E-|-----------------0-0-0-0-0-0-0-0-2-2-2-2-2-2-2-2-------3-3-3-0-0-0-0-0---
    
    A-|-2-2-2-----------------2-2-2-----------------------------------
    E-|-------3-3-3-0-0-0-0-0-------3-3-3-0-0-0-0-0-2-2-2-2-2-2-2-2-2-
    
    bridge:
    A-|-2-2-2-2-2-5-----------------------------------------
    E-|-------------3-3-3-3-3-5-0-0-0-0-0-5-3-3-3-3-5-5-5-5-…
  • G]--------------------------------------------------------------------------
    D]---------------------------------------------------------------------------
    A]-5-5-5----8-8--5-5-5-----------5-5-5---8-8--3-3-3-3-10-8-8--
    E]---------6----------------6--3-3----------6-----------------------------…
  • Intro part 1
    
    G:-------------------------------------------------------------------------
    D:-7777777/17-17-17-17-17-17-17-17-12-12-12-12-12/19-19-19-19-19-19-19-19-
    A:-------------------------------------------------------------------------
    E:-------------------------------------------------------------------------
    
    Intro…
  • G:---------------------------------------------------------------
    D:---------------------------------------------------------------
    A:-7-4-5---------7-4-5---------7-4-5---------5-5-5-5-5-5-5-5--
    E:-------7- 7-7-7-------7-7-7-7-------7-7-7-7-------------------
    (5)
    G:-----------------------------------------------------------------------
    D:-------------7-7-9-9-7-7-------------5-5-7-7-5-5-------------7-7-9-9-
    A:-7-7-7-7-7-7-------------5-5-5-5-5-5-------------7-7-7-7-7-7---------
    E:------------------------------------------------------------------------
    G:-----------------------------------------------------------------------
    D:----…
  • intro:
    e-|-------------------------------------------
    B-|-------------------------------------------
    G-|-7-7-10-10-7-7-10-10-7-7-10-10-12-12-12-12-
    D-|-7-7-10-10-7-7-10-10-7-7-10-10-12-12-12-12-
    A-|-5-5--8--8-5-5--8--8-5-5--8--8-10-10-10-10-…
  • intro & verse
    G:---------------------------------------------------
    D:-------------------------2>--------------------2>--
    A:--2>-5-------5-2>-5----5----2>-5-------5-2>-5>----- X 4
    E:-------3>-5>--------3>-----------3>-5>-------------
    
    chorus
    G:-----------------------------------------------2--
    D:-----------------3-3-2-2-3-------------2-3-4-5----
    A:-------2>-5-2>-5-----------5------2>-5------------…
  • Intro
    e|--------------------------------------------------------------------|
    B|--------------------------------------------------------------------|
    G|-7-7-7-7-7--9-9-9--10-10-10-10---12--12-12--14--14-14-14--14--------
    D|--------------------------------------------------------------------|
    A|-5-5-5-5-5--7-7-7---8--8--8--8---10--10-10--12--12-12-12--12--------
    E|--------------------------------------------------------------------|…
  • *=palm mutes
    
    |---------------------------------------------|
    |---------------------------------------------|
    |---------------------------------------------|
    |----------10101010---------------------------|
    |----7777--8-8-8--8---10101010----5555--------|
    |----5555-------------8-8-8-8-----3333--------|…
  • Chords:
    
    C5   (8-10-10xxx)
    F5   (x8-10-10xx)
    C#5  (x466xx)
    D#5  (x688xx)
    G#5  (466xxx)
    Bb5  (688xxx)
    
    
    Intro:
    
    E|--------------------------------------------------------------------------|
    B|--------------------------------------------------------------------------|
    G|10-10--10-10-10--10-6-6---6-----10-10--10-10-10--10-6-6---6-8-8-----------|
    D|10-10--10-10-10--10-6-6---6-6-6-10-10--10-10-10--10-6-6---6-8-8-----------|
    A|-8--8---8--8--8---8-4-4---4-6-6--8--8---8--8--8---8-4-4---4-6-6-----------|
    E|----------------------------4-4-------------------------------------------|
    cont.
    E|--------------------------------------------------------------------------|
    B|--------------------------------------------------------------------------|
    G|10-10--10-10-10--10-6-6---6-----------------------------------------------|
    D|10-10--10-10-10--10-6-6---6-6-6--8-8-8-8-8-6-10-10-10-10-10---------------|
    A|-8--8---8--8--8---8-4-4---4-6-6--8-8-8-8-8-6-10-10-10-10-10---------------|
    E|----------------------------4-4--6-6-6-6-6-4--8--8--8--8--8---------------|
    
    This…
  • Intro
    e|--------------8-10-12-10-8------------------------|
    B|-8-10-12-10-8--------------8-10-12-10-8-----------|
    G|-----------------------------------------11-12-14-|
    D|--------------------------------------------------|…
  • < means strum  ^ means tembolo
    
    G
    D
    A  3< 2<                  3                 3< 2<
    E           0<  3 55  0<    5 5  0<  3 5 5
    
    
    G                                            7 5
    D              5…
  • Intro guitar 1
    |-----------------------------------------------------|
    |-----------------------------------------------------|
    |-----------------------------------------------------|
    |---------------------------555555555555--------------|
    |-777777777777-333333333333-333333333333-555555555555-|
    |-555555555555-111111111111--------------333333333333-|
    
    Intro…
  • INTRO: 
    G:-------------------------------------- 
    D:----------2>-------------------------- 
    A:-2>-5>-------2>-5>-------------------- 
    E:-------5>----------5>-3-3-3-3-2-2-2-2- 
    
    RIFF 1: 
    G:---------------------------------------------…
  • intro:                           verse:
    e-|-----------------------------|---------------------------------------
    B-|-----------------------------|---------------------------------------
    G-|-7-7-7-7-7-7-5-7-7-7-7-7-5-7-|-7-7-7-7-10-10-9-9-5-7-7-5-7-7-7-7-7-7-
    D-|-7-7-7-7-7-7-5-7-7-7-7-7-5-7-|-7-7-7-7-10-10-9-9-5-7-7-5-7-7-7-7-7-7-
    A-|-5-5-5-5-5-5-3-5-5-5-5-5-3-5-|-5-5-5-5--8--8-7-7-3-5-5-3-5-5-5-5-5-5-
    E-|-----------------------------|---------------------------------------
    
    
    e-|-----------------------------------------------------------------------
    B-|-----------------------------------------------------------------------
    G-|-10-10-9-9-5-5-5-5---------7-7-7-7-10-10-9-9-7-7-7-7-10-10-9-9-7-7-7-7-
    D-|-10-10-9-9-5-5-5-5-7-7-7-7-7-7-7-7-10-10-9-9-7-7-7-7-10-10-9-9-7-7-7-7-
    A-|--8--8-7-7-3-3-3-3-7-7-7-7-5-5-5-5--8--8-7-7-5-5-5-5--8--8-7-7-5-5-5-5-
    E-|-------------------5-5-5-5---------------------------------------------…
  • Standard tuning
    ^=bend
    h=hammer on
    p=pull off
    t=trill
    *=tremolo picking
    =slide down
                                    (Play this last part extremely fast)
    |-9---5-5-5--5----5-5-5--5-------------------------------|
    |-9---5-5-5--5----5-5-5--5-----5-------------------------|
    |---------------7^-----------7^---5h7p5-------(7p5--------|
    |---------------------------------------7^-------7p5------|
    |---------------------------------------------------7p5)--|
    |---------------------------------------------------------|
    
    |--------------------------------------------5--5-5-55--5-5-|
    |---------------------------5--5--5h8p5-8----8^-8-8-88^-8-8-|
    |---------------------------7^-7^---------------------------|
    |------------5^-----5^--------------------------------------|
    |------5h7p5----5------5------------------------------------|
    |-5--8------------8------5----------------------------------|
    
    |---5*8*10*-12*-12t10*-12-10-8h10p8-8-10p8-|
    |-8-----------------------------------------|
    |-------------------------------------------|
    |-------------------------------------------|
    |-------------------------------------------|
    |-------------------------------------------|…
  • INTRO
    G:--------------------------------------
    D:----------------3--3--------------333-
    A:--------------------------------------
    E:1114311111114311-11-11143111111143----
    
    VERSE
    G:------------|---------
    D:------------|---------
    A:---4-6666---|---------
    E:111-4----64-|11143111-
    
    CHORUS
    G:--------------------------------------
    D:--------------------------------------
    A:4444-1111-----1--------3-4444-1111----
    E:----------1111-444-346-------------43-
    
    CHORUS…
  • Intro And Chorus
    
    e|-----------------------------------------|
    B|-----------------------------------------|
    G|--5-5-5-xx-------------------------------|
    D|--5-5-5-xx-5-5-5-xx-7-7-7-xx-3-xx-5-xx---|
    A|--3-3-3-xx-5-5-5-xx-7-7-7-xx-3-xx-5-xx---|
    E|-----------3-3-3-xx-5-5-5-xx-1-xx-3-xx---|
    
    Verse
    
    e|---------------------------------|
    B|---------------------------------|
    G|---------------------------------|
    D|-7-7-7-7-5-5-5-5-7-7-7-7-3-3-5---|
    A|-7-7-7-7-5-5-5-5-7-7-7-7-3-3-5---|
    E|-5-5-5-5-3-3-3-3-5-5-5-5-1-1-3---|…
  • e ----------------------------------------------------
    b ----------------------------------------------------
    g -9--9-9-9-9-x-x-x-x-x---5--5-5-5-5-x-x-x-x-x--------
    d -9--9-9-9-9-x-x-x-x-x---5--5-5-5-5-x-x-x-x-x--------
    A…
  • INTRO
    
    e|----------------------------------|
    h|----------------------------------|
    g|--------10101010----------7-7-7-7-|
    d|7-7-7-7-10101010-10101010-7-7-7-7-|
    a|7-7-7-7-8-8-8-8--10101010-5-5-5-5-|
    e|5-5-5-5----------8-8-8-8----------|…
  • Verse:
    Play 3x's
    G------------------------------------------------------------
    D-------------------------------------333333-3---------------
    A--333----5--333-----5----333-----5--------------------------
    E------3----------3------------3-----------------------------
    
    Chourus:
    Play…
  • Intro
    none of the chord struming is exact. listen to the record and figure it out yourself. 
    e|----------------------------------------------------------------------------|
    B|----------------------------------------------------------------------------|
    G|---------------------------10101099-555-777-----1010/99-555----------------|
    D|--7--------------------777-10101099-555-777-777-1010/99-555-553/5---------|
    A|--7--strum…
  • Intro
    
    G:----------------------------------------------
    D:----------------------------------------------
    A:----------------------------------------------
    E: 3------3-------------------------------------…
  • Tuning: Standard 
    
      Intro 
    G|---------------------------|
    D|---------------------------| x3
    A|-----------2222------------|
    E|2222-0000------0000--------|
    
    G|---------------------------|
    D|---------------------------| x1
    A|-----------2222-3333-------|
    E|2222-0000------------------|…
  • Tuning: E A D G B e 
    
        Intro 2x: Guitar #1
    e|-----------------------------------------------------------------------------------------|
    B|-----------------------------------------------------------------------------------------|
    G|-16-16-16-16-16-16-16-16-17-17-17-17-16-16-16-16-19-19-19-19-19-19-19-19-20-20-20-20-19--|
    D|-----------------------------------------------------------------------------------------|
    A|-----------------------------------------------------------------------------------------|
    E|-----------------------------------------------------------------------------------------|…
  • intro:
    e-|--------------------------------------
    B-|--------------------------------------
    G-|-------5-7-x-x---------------------5-- repeat 
    D-|-7-x-x-5-7-x-x-5-x-x-2-7-------5-7----
    A-|-7-x-x-3-5-x-x-5-x-x-2-7---5-7--------
    E-|-5-x-x---------3-x-x-0-5-5------------
    
    e-|-----------------------------------------------------------------|
    B-|-----------------------------------------------------------------|
    G-|-----------------7-7-7-7-7-7-7-7---------------------------------|
    D-|-7-7-7-7-7-7-7-7-7-7-7-7-7-7-7-7-5-5-5-5-5-5-5-5-7-7-7-7-7-7-7-7-|
    A-|-7-7-7-7-7-7-7-7-5-5-5-5-5-5-5-5-5-5-5-5-5-5-5-5-7-7-7-7-7-7-7-7-|
    E-|-5-5-5-5-5-5-5-5-----------------3-3-3-3-3-3-3-3-5-5-5-5-5-5-5-5-|
    Yah.yah…
  • Intro
    e----------------------            ------------
    b----------------------            ------------
    g--9xxx------7xxx------ at the end ------------
    d--9xxx-5xxx-7xxx-9xxx-            ---9-7-9-12-
    a--7xxx-5xxx-5xxx-9xxx-…
  • S1: 
    Bass Intro
    g|--------------------------------------------------------| 
    d|--------------------------------------------------------| 
    a|--------5----5----5----3----5---3----3----1----1----3---| 
    E|--1/3-3--3-3--3-3--3-3--3-3---1--1-1--1-1--1-1--1-1-----|
    
    e|----------------------------------------|
    b|----------------------------------------|
    g|----------------------------------------|
    d|--5-5-5-5-5-5-5-5--5-5-5-5-5-5-5-3-let--|
    a|--5-5-5-5-5-5-5-5--5-5-5-5-5-5-5-3-it---|
    E|--3-3-3-3-3-3-3-3--3-3-3-3-3-3-3-1-ring-|…
  • intro & verse
    G:---------------------------------------------------------------
    D:---------------------------------------------------------------
    A:-7-5----------3-------------7-5----------3-5-7-7-7------
    E:-------5-5-5----3-0-0-0--------5-5-5--------------------…
Наверх