Аккорды Песни из кинофильмов - Город, которого нет (из кинофильма "Бандитский Петербург")

Добавлено: @vitos
Дата добавления: 04 Ноября 2014г.
Рейтинг:
0.0
Просмотров: 307
Транспонировать - +
Аккорды:
     Gm   D5   F   Esus4     Dm   C     
E-|--3----X----1----5(X)-----1----0--|-
B-|--3----3----1----5(X)-----3----1--|-
G-|--0----2----2----2(2)-----2----0--|-
D-|--0----0----3----2(2)-----0----2--|-
A-|--1----X----3----0(0)-----X----3--|-
E-|--X----X----1----X(X)-----X----X--|-

Esus4 можно заменить аккордом в скобках.

Вступление:
               2  р а з а.
E-|--1---1---0---0---|--3---3-----------|--
B-|--3---3---3---3---|--3---3---5---5---|--
G-|--2---2---2---2---|--0---0---2---2---|--
D-|----0---0---0---0-|----------2---2---|--
A-|------------------|----1---1---0---0-|--
E-|------------------|------------------|--

Соло 1:
E-|-------------------------------------|--
B-|------15--17--1820--15--------------|--
G-|---14-------------------12^--10--12^-|--
D-|-------------------------------------|--
A-|-------------------------------------|--
E-|-------------------------------------|--


 Dm                      Gm
Ночь и тишина, данная на век.
 C                            F
Дождь, а может быть, падает снег.
 Gm                            Esus4
Все равно, бесконечно надеждой согрет,
 Gm                       Esus4
Я вдали вижу город, которого нет.

Где легко найти страннику приют,
Где, наверняка, помнят и ждут;
День за днем, то теряя, то путая след,
Я иду в этот город, которого нет.


Припев:
 D5                 Gm
Там для меня горит очаг,
 C
Как вечный знак
 F     Esus4
Забытых истин.
 D5                   Gm
Мне до него последний шаг,
 C
И этот шаг
 F     Esus4
Длиннее жизни.


Соло 2:

E-|-------------------------------------|-
B-|--15-17-18-17-15--10--8--6--5-6------|-
G-|---------------------------------7---|-
D-|-------------------------------------|-
A-|-------------------------------------|-
E-|-------------------------------------|-


Кто ответит мне, что судьбой дано,
Пусть об этом знать не суждено.
Может быть, за порогом растраченных лет
Я найду этот город, которого нет.


Припев

Соло 3:

E-|-----------------------------------|-
B-|--15-17-18-17-15--13-11-10-1013---|-
G-|-----------------------------------|-

E-|-----------17----------------------|-
B-|--13-15-16-----16-15-13---12^------|-
G-|-----------------------------------|-


E-|-------11-15--17-14-15-17-15-21^---|-
B-|--8-11-----------------------------|-
G-|-----------------------------------|-

E-|--------------------8-10-15-10-11^-|-
B-|---------------8-11----------------|-
G-|----------8-10---------------------|-
D-|---5-8-10--------------------------|-
A-|-8---------------------------------|-
E-|-----------------------------------|-

Припев


Соло 2
comments powered by Disqus
Наверх