Аккорды «Песни из видеоигр»

Песни из видеоигр
Подборка песен из Ваших любимых видеоигр. Подборка песен из Ваших любимых видеоигр. Скрыть...
Популярные аккорды Песни из видеоигр:
алфавиту | просмотрам | случайно
  • Overworld Theme
      Dadd9      D7 Dadd9 G       G
    
    
      Gtr I
    |-12-12--12-----12--|-15--------------||
    |------------13-----|-12--x-x-----x-x-||
    |-11-11--11--11-11--|-12--x-x-12--x-x-||
    |-------------------|-----x-x-----x-x-||
    |-------------------|-----x-x-10--x-x-||
    |-10-10--10--10-10--|-----------------||…
  • Dadd9      D7 Dadd9 G       G
    
    
      Gtr I
    |-12-12--12-----12--|-15--------------||
    |------------13-----|-12--x-x-----x-x-||
    |-11-11--11--11-11--|-12--x-x-12--x-x-||
    |-------------------|-----x-x-----x-x-||
    |-------------------|-----x-x-10--x-x-||
    |-10-10--10--10-10--|-----------------||…
  • Tunning: E A D G B e
    
    
    (1)
    e|----------------------------------------------|
    B|----------------------------------------------|
    G|----------------------------------------------|
    D|-2-2-----2----------2-------2--4-4-----4---3~-|
    A|-----3-0---3--0-2-3---0-2-3--------5-2---5----|
    E|----------------------------------------------|
    
    (2)
    e|---------------------------------------------------------|
    B|---------------------------------------------------------|
    G|---------------------------------------------------------|
    D|-2-2-----2----------2-------2--4-4-----4---3-3-5h-3-5h-7-|
    A|-----3-0---3--0-2-3---0-2-3--------5-2---5---------------|
    E|---------------------------------------------------------|
    
    (3)
    e|--------------------------------|
    B|--------------------------------|
    G|--------------------------------|
    D|-3-3-2-0---0--------------------|
    A|---------3---3-0--1-1-3-1-0-1-3-|
    E|--------------------------------|
    
    (4)
    e|------------------------------|
    B|------------------------------|
    G|------------------------------|
    D|-3-3-2-0---0--------5-7-7-5-3-|
    A|---------3---3-0--3-----------|
    E|------------------------------|
    
    (5)
    e|--------------------------------|
    B|--------------------------------|
    G|--------------------------------|
    D|-3-3-2-0---0--------------------|
    A|---------3---3-0--1-1-3-1-0-1-3-|
    E|--------------------------------|
    
    (6)
    e|------------------------|
    B|------------------------|
    G|------------------------|
    D|-7-5-3-2-3h-2-3h-2-3h-0-|
    A|------------------------|
    E|------------------------|…
  • e|--10--13--12--15--15--13--15--17--10--6--8--12--13--15--17--10--10--10-----|
    B|---------------------------------------------------------------------------|
    G|---------------------------------------------------------------------------|
    D|---------------------------------------------------------------------------|
    A|---------------------------------------------------------------------------|
    E|---------------------------------------------------------------------------|
    
    
    e|--12--12--13--13--|
    B|------------------|
    G|------------------|
    D|------------------|
    A|------------------|
    E|------------------|…
  • |-----------------------|--------------------|
    |--5--3------53100135---|--6-89864-4321-25---|
    |---56-653356--------533|---------4----3--533|
    |-----------------------|--------------------|
  • e ----------------------------------
    B ----------------------8-10-8------
    G --7-9-7-9-7-9-11-9-11--------9-7--
    D 9--------------------------------9
    A ----------------------------------
    E ----------------------------------
    Repeat…
  • E|--------7----------7----------7--10-9--76-76--|
    B|-7-—10------7—-10------7—-10----------------6-|
    G|----------------------------------------------|
    D|----------------------------------------------|
    A|----------------------------------------------|
    E|----------------------------------------------|…
  • G| ------------2-0-----
    D| -0-----0---0---0---
    A| 2-0-0-2-0-2-----3-2-0
    E| ---3----------------
    
    G| ------------2-0-7-
    D| -0 ----0---0------
    A| 2-0-0-2-0-2--------
    E| ---3--------------
    
    G|7-5-4-5-4-0--5-4-0-4-0--7-5-4-5-4-0-5-12
    D|----------------------2-----------------
    A|----------------------------------------
    E|----------------------------------------…
  • Standard tuning
    
                
    |-----------------------------------------------|
    |-----------------------------------------------|
    |-----------------------------------------------|
    |-----------------------------------------------|
    |--0-0-0-3---0-0-0-5---0-0-0-6-5-3--5-3-2--3-2--|
    |-----------------------------------------------|
    palm…
  • Intro (After first part of the Guitar Intro)
    G|----------------2--1-------0--2
    D|------------4---------4--2-----
    A|----0-2------------------------
    E|--2----------------------------
    
    
    Second part (Part with trumpet lead)
    
    G|---------------------------------------------------------
    D|---------------------------------------------------------
    A|--3--3--3-3-3-3-1--1--1-1-1-1----------------------------
    E|------------------------------1--1--1-1-1-1-3--3--3-3-3-3
    
    
    Third…
  • E|--------------------------------------||
    B|-----------------1-0------------------||
    G|---2-----2-----2-----0---0-2----------||
    D|-----0-3---0-3---------3-----0---2-0--||
    A|-------------------------------3------||
    E|--------------------------------------||…
  • |-----------------------------7-5------------5-7-10----9-10-12--|
    |-7-5-----5-7-0-7-5-----5-7-------7---5----7--------------------|
    |-----7---------------7-------------7---------------------------|
    |---------------------------------------------------------------|
    |---------------------------------------------------------------|
    |---------------------------------------------------------------|
    
    
    |-10-------------9--10-9-----------|
    |----12----10-12---------12-10-12--|
    |----------------------------------|
    |----------------------------------|
    |----------------------------------|
    |----------------------------------|…
  • Japas:
    --------------------------
    --------------------------
    --------------------------
    --------------------------
    ------3----3--------------
    ----------------4---1-----
    
    
    Link (Mikau):
    --------------------------
    --------------------------
    --------------------------
    --------------------------
    -----------------3--------
    -------1----4-------1-----…
  • E -------------------------------------
    B -------------------------------------
    G -------------------------------------
    D -----------2--5--2-----2-------------
    A -----3--5-----------5-----3-----3--5-
    E --3--------------------------5-------
    
    E…
  • Main Riff
    G------------------
    D---------------1--
    A-------1-3---1---3
    E-(1)-1-----1------
    
    
    Bass Solo
    G----------------------------------------------------
    D-----1-----3---1---3---1-------1-----3---1---3---1-0
    A-3-3---3-3---3---3---3---1---3---3-3---3---3---3----
    E---------------------------4------------------------
    
    G---------------------------------------------3--1--0-
    D-----1-----3---1---3---1-------1-----3---1-----------
    A-3-3---3-3---3---3---3---1---3---3-3---3---3---------
    E---------------------------4-------------------------…
  • MAIN RIFF 
    
    E----------------------------------------------------
    B----------------------------------------------------
    G----------------------------------------------------
    D----------------------------------------------------
    A-/--2-2-2-2---4-5-x-x-4-5-x-x-4-5-5-5---------5--3--
    E-/--0-0-0-0---2-3-x-x-2-3-x-x-2-3-3-3----3h5-------5
    
    
    E-----------------------------------------
    B-----------------------------------------
    G-----------------------------------------
    D-----------------------------------------
    A----2--7PH--4-5--4-5--4-5-5-5------------
    E----0-------2-3--2-3--2-3-3-3------------
    
    
    Fast…
  • E|------10--------10--------|
    B|-10-7------10-7------10---|
    G|--------------------------|
    D|--------------------------|
    A|--------------------------|
    E|--------------------------|
    
  • intro, about 4 seconds into it
    e---------------------------------------------------------------------------------------------|
    b------------------------------------8--------------------------------------------------------|
    g--------------7---9-7--------9----------…
  • e|---------------|----------------|----------------|------3~~~~~~~-|
    B|-0-1-----------|--0-1-5~~~~~~~--|--0-1-----------|---------------|
    G|-----2~~~~~~~--|----------------|------2~~~~~~~--|--2-3----------|
    D|---------------|----------------|----------------|---------------|
    A|---------------|----------------|----------------|---------------|
    E|---------------|----------------|----------------|---------------|
    
    e|-----------------------|--------------------------|--------------|
    B|-----------------------|--------------------------|--------------|
    G|-2~-1-2-4~-1-2~~~~~~~--|--6-4-7-6-4-6-1-2~~~~~~~--|--2~-1-2-4~-1-|
    D|-----------------------|--------------------------|--------------|
    A|-----------------------|--------------------------|--------------|
    E|-----------------------|--------------------------|--------------|
    
    e|-----------|--------------------------|--------------------------|
    B|-----------|--------------------------|--4~~~~-------------------|
    G|-2~~~~~~~--|--6-4-7-6-4-6-1-2~~~~~~~--|---------2~~~~-4-3~~~~~~~-|
    D|-----------|--------------------------|--------------------------|
    A|-----------|--------------------------|--------------------------|
    E|-----------|--------------------------|--------------------------|
    
    e|------------------------|
    B|-7~~~~-3~~~~-6-4~~~~~~--|
    G|------------------------|
    D|------------------------|
    A|------------------------|
    E|------------------------|…
  • Tuning: Standard
    
    
    e|-(17)--------------|-------------|
    B|-----------6-5---5-|-----6-5---8-|
    G|---------7-----7---|---7-----7---|
    D|-------7-----------|-7-----------|
    A|-------------------|-------------|
    E|-------------------|-------------|
    
    
    e|-------------|-----------|
    B|-----6-5---5-|-5-6-5-----|
    G|---7-----7---|-------5-7-|
    D|-7-----------|-----------|
    A|-------------|-----------|
    E|-------------|-----------|…
  • The Bass line is just an A B D pattern.
    
    
    Main Melody
    E:---------------------------
    b:---------------------------
    g:---------------------------
    d:-9-7-9-7-5--7--9-7-5--3-5--
    a:---------------------------
    e:---------------------------
    
    
    Fast…
  • Tuning: E A D G B E
    
    
    |---------------|-----------------|----------------|---------------|
    |---------------|-----------------|----------------|---------------|
    |---------------|-------9-7-------|----------------|---------------|
    |---7-9----7-9--|---7-9------9-10-|-9--------------|---------------|
    |-8------8------|-8---------------|---10-7---------|-7-10-7--------|
    |---------------|-----------------|-------------10-|---------------|
    
    
    |---------------|-----------------|-----------------|----------------|
    |---------------|-----------------|-----------------|----------------|
    |---------------|-------9-7-------|-9---------------|----------------|
    |---7-9----7-9--|---7-9------9-10-|---10---------10-|----------------|
    |-8------8------|-8---------------|------10---------|-10----7--------|
    |---------------|-----------------|-----------------|----10----------|
    
    
    |-----------------|---------------|-----------------|---------------|
    |-----------------|---------------|-----------------|---------------|
    |-----------------|---------------|-----------------|----7-9--------|
    |------------7-9--|-10-9----------|------------7-9--|-10------------|
    |----7-8--10------|------7--------|----7-8--10------|---------------|
    |-10--------------|---------------|-10--------------|---------------|
    
    
    |-----------------|---------------|
    |-----------------|---------------|
    |-----------------|---------------|
    |------------7-9--|-10-9----------|
    |----7-8--10------|------7--------|
    |-10--------------|---------------|
    
    
    |--------------------|----------------------|------*|
    |--------------------|----------------------|------*|
    |--------------------|----------7----9h10-7-|-9----*|
    |---------------7----|-9-7-10-9---10--------|------*|
    |-7----8-7-10-8---10-|----------------------|------*|
    |---10---------------|----------------------|------*|…
  • 1st time
    SOUNDS BEST DISTORTED                         
                                                   
    Intro                                           
    e----|-----|----------|----0|-0-0-0----|----------------|  
    B-1--|-----|-1-1-1-0--|-----|-------3-1|-1-0---0-1-0---0|…
  • |-----------------------------------------------------------------|
    |-----------------------------------------------------------------|
    |--------9----------12-----------14-----------14-------14-12-11---|
    |--------9-l.r------12-l.r-------14-l.r-------14-------14-12-11---|
    |--------7----------10-----------12-----------12-------12-10--9---|
    |--0-0-0-7----0-0-0-10-----0-0-0-12-----0-0-0-12-0-0-0-12-10--9---|…
  • Guitar 1: String Ensemble Part
    e|----------------(triplet)-|------------------------|-------------------|
    b|-----------------|#3#|----|------------------------|-------------------|
    g|---10---10--10---101010---|-10----10---10----10----|-----------|#3#|---|
    d|---10---10--10---101010---|-10----10---10----10----|-10-10-10-101010---|
    a|----8----8---8----8-8-8---|--8-----8----8-----8----|--6--6--6--6-6-6---|
    e|---(6)--------------------|------------------------|--8--8--8--8-8-8---|…
  • Drop-D Tuning
    
    								 
    e---------------------18-18-18-18-18~---------------------------|_
    b-15-15-15-15-15~-------------------------18-18-18-18-18~-------| |
    g---------------------------------------------------------------|…
  • E-------------------------------
    B-3-8-11-10-8-10----------------
    G-------------------------------
    D-------------------------------
    A-------------------------------
    E-------------------------------
    
    
    E-------------------------------
    B-3-8-11-10-8-13----------------
    G-------------------------------
    D-------------------------------
    A-------------------------------
    E-------------------------------
    
    
    E-------------------------------
    B-3-8-11-10-8-10-10-11-10-8-4-3-
    G-------------------------------
    D-------------------------------
    A-------------------------------
    E-------------------------------…
  • E|-------3--6|----5--1---|------0-3-5-8-6-5-3-5-1-|
    B|----1------|----------1|--0-1-------------------|
    G|-----------|-----------|------------------------|
    D|-----------|-----------|------------------------|
    A|-----------|-----------|------------------------|
    E|-----------|-----------|------------------------|
    
    E|---1----1--0---1--3--0---|
    B|------------------------1|
    G|-------------------------|
    D|-------------------------|
    A|-------------------------|
    E|-------------------------|…
  • |-22-(22)----------------22-(22)----------------22-(22)-------------------||
    |-----20--(20)---------------20--(20)---------------20--(20)--------------||
    |----------19--(19)---------------19--(19)---------------19--(19)---------||
    |---------------17--(17)---------------17--(17)---------------17--(17)----||
    |---------------17--(17)---------------17--(17)---------------17--(17)----||
    |-------------------------------------------------------------------------||…
  • Guitar 1
    ----------------------------------------------------------
    ----------------------------------------------------------
    ----------------------------------------------------------
    -2-2-2-2--2-2-2-2--2-4-5-4-2-2-2-2-2--2-2-2-2--2-4-5-4-2--
    ----------------------------------------------------------
    ----------------------------------------------------------
    
    
    Guitar…
  • Intro:
    
    e:-----------------|------------------|-----------------|------------------|
    b:--11p-10---------|---11p-10---------|--11p-10---------|---11p-10---------|
    g:----------10-----|-----------10-----|----------10-----|-----------10-----|
    D:--------------10-|---------------10-|--------------10-|---------------10-|
    A:-----------------|------------------|-----------------|------------------|
    E:-----------------|------------------|-----------------|------------------|
    
    
    e:-----------------|-----------------|-----------------|-----------------|
    b:-----------------|-----------------|-----------------|-----------------|
    g:-----------------|-----------------|-----------------|-----------------|
    D:-----------------|-----------------|-----------------|-----------------|
    A:--13p-12---------|--13p-12---------|--13p-12---------|--13p-12---------|
    E:----------13--10-|----------13--10-|----------13--10-|----------13--10-|
    
    
    Main…
  • Tuning: Standard 
    
    
    E|------------------------------------------------------------------------||
    B|---------------------------12-------------------------------------12----||
    G|---7------10-----14---14-----------------7------10-----14---14----------||
    D|------------------------------------------------------------------------||
    A|------------------------------------------------------------------------||
    E|------------------------------------------------------------------------||
    
    E|---------------------------------------------||
    B|-----------------8--6--5--8---7--------------||
    G|----14-----10--------------------------------||
    D|--------12-----------------------------------||
    A|---------------------------------------------||	
    E|---------------------------------------------||…
  • e----------------------0----------3--------------------3-----------3--| 
    B-----------0---------------0-----3--------3-----------------3-----3--| 
    G--0-------------0----------------3-------------2------------------2--| 
    D--2------------------------------------------------------------------|…
  • e|-----------------------------7---8---7--------------------------------|
    B|----------------8---10---10-------------10---8---10-------------------|
    G|---7---9---10-----------------------------------------10---9---7---5--|
    D|----------------------------------------------------------------------|
    A|----------------------------------------------------------------------|
    E|----------------------------------------------------------------------|
    
    e|-------------------------7---8---7---------------------|
    B|-----------------8---10--------------10---10---9---10--|
    G|---7---9---10------------------------------------------|
    D|-------------------------------------------------------|
    A|-------------------------------------------------------|
    E|-------------------------------------------------------|
    
    e|-------------------------7---8---7---------------------------------|
    B|-----------------8---10--------------10---8---10-------------------|
    G|---7---9---10--------------------------------------10---9---7---5--|
    D|-------------------------------------------------------------------|
    A|-------------------------------------------------------------------|
    E|-------------------------------------------------------------------|
    
    e|----------------------------------------------------------------------------|
    B|-------------------------------------10-------------------------------------|
    G|---10---10---12---10---9------------------9---12---10---9---9---10---7---7--|
    D|---------------------------12---10------------------------------------------|
    A|----------------------------------------------------------------------------|
    E|----------------------------------------------------------------------------|
    
    e|---10------10---8---7----------------------------------7---8--|
    B|-------10--------------10---8---10---6---8---10---10----------|
    G|--------------------------------------------------------------|
    D|--------------------------------------------------------------|
    A|--------------------------------------------------------------|
    E|--------------------------------------------------------------|
    
    e|---10------10---8---7---------------------------------------|
    B|-------10--------------10---8-------------------------------|
    G|--------------------------------10---12---9-----------------|
    D|----------------------------------------------11---12---12--|
    A|------------------------------------------------------------|
    E|------------------------------------------------------------|
    
    e|---10------10---8---7----------------------------------7---8---8--|
    B|-------10--------------10---8---10---6---8---10---10--------------|
    G|------------------------------------------------------------------|
    D|------------------------------------------------------------------|
    A|------------------------------------------------------------------|
    E|------------------------------------------------------------------|
    
    e|---10------10---8---7---------------------------------------|
    B|-------10--------------10---8-------------------------------|
    G|--------------------------------10---12---9-----------------|
    D|----------------------------------------------12---11---12--|
    A|------------------------------------------------------------|
    E|------------------------------------------------------------|…
  • E|--3-8-7---6-1-3---3-8-10-7---6-3-1-3-|
    B|-------------------------------------|
    G|-------------------------------------|
    D|-------------------------------------|
    A|-------------------------------------|
    e|-------------------------------------|
    
    E|-3-8-7---6-3-1-4-3---------1-----------|
    B|---------------------1-3-5-----5-3---1-|
    G|-----------------------------------2---|
    D|---------------------------------------|
    A|---------------------------------------|
    e|---------------------------------------|
    
    E|-7-6-1-4-3---7-6-8-5-3-|
    B|-----------------------|
    G|-----------------------|
    D|-----------------------|
    A|-----------------------|
    e|-----------------------|
    
    
    Repeat…
  • E-------8-12-8--------------------------8-12-8--------------12-
    B-10-12------------12-10-12--5----10-12------------12-10-12----
    G--------------------------------------------------------------
    D--------------------------------------------------------------
    A--------------------------------------------------------------
    E--------------------------------------------------------------
    
    
    E-8-10-12-15-12----10-8-10-------------------------------------
    B--------------------------12-----13-12-10-----13-12-10--------
    G--------------------------------------------------------------
    D--------------------------------------------------------------
    A--------------------------------------------------------------
    E--------------------------------------------------------------…
  • Tunning: (Guitar) - EADGBe (Bass) - EADG
    
    
    Intro:(Play first 2 riffs 2x)
    e|-------------------------------------|
    B|-------------------------------------|
    G|-4-x-x-x-x-7-x-x-x-x-9-x-x-x-x-------|
    D|-4-x-x-x-x-7-x-x-x-x-9-x-x-x-x-7-5-7-|
    A|-2-x-x-x-x-5-x-x-x-x-7-x-x-x-x-7-5-7-|
    E|-------------------------------5-3-5-|
    
    e|-----------------------------------------|
    B|-----------------------------------------|
    G|-4-x-x-x-x-7-x-x-x-x-9-x-x-x-x--14-12-14-|
    D|-4-x-x-x-x-7-x-x-x-x-9-x-x-x-x--14-12-14-|
    A|-2-x-x-x-x-5-x-x-x-x-7-x-x-x-x--12-10-12-|
    E|-----------------------------------------|
    
    
    Main…
  • E|-1-----5-0-1-----1-0-------7-5-3--|
    B|---------------3-----1-1----------|
    G|---2------------------------------|
    D|----------------------------------|
    A|----------------------------------|
    E|----------------------------------|
    
    
    E|-1-----5-0-1-----1-3-5-8---7---7-5--|
    B|---------------3-------------8------|
    G|---2--------------------------------|
    D|------------------------------------|
    A|------------------------------------|
    E|------------------------------------|…
  • INTRO
    		
    E -----------------------------------------------------------------------------
    B -----------------------------------------------------------------------------
    G -----------------------------------------------------------------------------
    D…
  • |-0h3/--------||----------------12-15--12--||----------------13-16--13--||
    |-------------||-------------13----13---8--||-------------14----14---9--||
    |-------------||----------12---------------||----------13---------------||
    |-------------||----10-14------------------||----11-15------------------||
    |-------------||-10------------------------||-11------------------------||
    |-------------||---------------------------||---------------------------||
    
    
    |----------------15-18--18-18-18-|-20-------(20)--*|
    |-------------16----16--16-16-16-|-----------------*|
    |----------15--------------------|-----------------*|
    |----13-17-----------------------|-----------------*|
    |-13-----------------------------|-----------------*|
    |--------------------------------|-----------------*|…
  • N.C.
    |----------------|-------------------------|
    |----------------|-------------------------|
    |----------------|-------------------------|
    |---10---7---8---|---6---7---8---9---10----|
    |----------------|-5-5S6-6S7-7S8-8S9--9----|
    |-8----5---6-----|-------------------------|…
  • |---------8----|---------8----|---------8-------------|-8----
    |--------------|--------------|-----------------------|------
    |--------------|--------------|-----------------------|-9----
    |-0---7--------|-----7--------|-0---7-------0---------|------
    |--------------|--------------|-----------------------|------
    |--------------|-8------------|------------------8----|------…
  • Melody
    e|--------5-----3-------------1-0--------------------------------|
    B|--3------------------------------3-------------5---3-----------|
    G|--------------------------------------5-3--5-2-----------------|
    D|---------------------------------------------------------------|
    A|---------------------------------------------------------------|
    E|---------------------------------------------------------------|…
  • Intro - 1
    G|----------------------------------------|
    D|--------------0-------------------------|
    A|--0-2--2-4--4-----4-2-0-----------2-0---|
    E|-2----2----2----2-------2-0-1-2-3-----3-|
    
    
    Intro - 2
    G|----------------------------------------|
    D|--------------0----------------x--------|
    A|--0-2--2-4--4-----4-2-0-----0-2---2-0-2-|
    E|-2----2----2----2-------2-2-----2-------|
    
    
    Main…
  • This is the intro (0:00 - 0:20)
    E|1--3--6--8--6--------1-5-3--|--6--8--10--13--11--------6-10-4--|
    B|1--------6-----6-----1---4--|--6---------11-----11-----6----4--|
    G|2--------6--------6--2---5--|--7---------11--------11--7----5--|
    D|3--------------------2---5--|--8-----------------------8----4--|
    A|3--------------------3---3--|--8-----------------------8----6--|
    E|1--------6-----------1---3--|--6---------11------------6----4--|…
  • -------------------------------------------------
    -------------------------------------------------
    -----5-------------------------------------------
    ---------7---5---7---5---------------------------
    --3----------------------------------------------
    -------------------------------------------------…
  • Tuning: E A D G
    
     
    G|--------------------------------|--------------------------------|
    D|2---2---2---2---2---2---2---2---|2---2---2---2---2---2---2---2---|
    A|--------------------------------|--------------------------------|
    E|--------------------------------|--------------------------------|…
  • Gtr I
    |-6-----6--6-6-6--6-|-6--4-6--(6)--6--6-6-6-6--|
    |-6-----6-11-6-6--6-|-6--6-6--(6)--6-11-6-6-6--|
    |---------10--------|----------------10--------|
    |-------------------|--------------------------|
    |-------------------|--------------------------|
    |-------------------|--------------------------|
    
    
    |-6--4--6--(6)---6-6-6-6-6--|-6---------------------------|
    |-6--6--6--(6)---6-6-6-6-6--|-6--6-6-6--6-6-6--6-6-6--6---|
    |---------------10----------|----3-3-4--4-4-5--5-5-6--6---|
    |---------------------------|-----------------------------|
    |---------------------------|-----------------------------|
    |---------------------------|-----------------------------|
    
    
    |-6-----------------8-10-11-|-13-----13--13-14-16--|-18-----18--18-16-14---|
    |-------------11-11---------|------------------13--|---------------13-11---|
    |-7--10--(10)--7--7-8-10-12-|-13-----13--13-15-----|-18-----18--18---------|
    |-----8---(8)---------------|----------------------|-----------------------|
    |---------------------------|----------------------|-----------------------|
    |---------------------------|----------------------|-----------------------|
    
    
    |-16--14--13----13--|-11--11-13-14----13--11--|-9--9-11-13----11--9---|
    |-----11------------|-------------------------|-6--6--------------6---|
    |-17------13----13--|-11--11-13-15----13--11--|------11-13----11------|
    |-------------------|-------------------------|-----------------------|
    |-------------------|-------------------------|-----------------------|
    |-------------------|-------------------------|-----------------------|
    
    
    |-8--8-10-12----15--|-13--------------------------|-6-----------------8-10-11--|
    |-5--5----------11--|-10--6-6-6--6-6-6--6-6-6--6--|-------------11-11----------|
    |------10-12--------|-----------------------------|-7--10--(10)--7--7-8-10-12--|
    |-------------------|-----7-7-7--7-7-7--7-7-7--7--|-----8---(8)----------------|
    |-------------------|-----------------------------|----------------------------|
    |-------------------|-----------------------------|----------------------------|
    
    
    |-13-----13--13-14-16--|-18------21--|-20--17----13--|-14----(14)--18---|
    |------------------13--|---------17--|-16------------|------------------|
    |-13-----13--13-15-----|-18----------|-----17----14--|-15----(15)--18---|
    |----------------------|-------------|---------------|------------------|
    |----------------------|-------------|---------------|------------------|
    |----------------------|-------------|---------------|------------------|
    
    
    |-17--13----13--|-14----(14)--18--|-17--13--------|-------------|
    |---------------|-----------------|-----------15--|-16------19--|
    |-17--14----14--|-15----(15)--18--|-17--14--------|---------16--|
    |---------------|-----------------|-----------15--|-16----------|
    |---------------|-----------------|---------------|-------------|
    |---------------|-----------------|---------------|-------------|
    
    
    |-----9----6--|-8--8----12----15--|-13--1-1-1--1-1-1--1-1-1--1---|
    |-18--6-------|-5--5-15-----------|-10---------------------------|
    |-15-------6--|---------12----15--|-----2-2-2--2-2-2--2-2-2--2---|
    |-------------|------15-----------|------------------------------|
    |-------------|-------------------|------------------------------|
    |-------------|-------------------|------------------------------|
    
    
    |-----1--(1)-------8-10-11-|-13-----13--13-14-16--|-18-----18--18-16-14---|
    |-11---------11-11---------|------------------13--|---------------13-11---|
    |-----3--(3)-------8-10-12-|-13-----13--13-15-----|-18-----18--18---------|
    |-12---------12-12---------|----------------------|-----------------------|
    |--------------------------|----------------------|-----------------------|
    |--------------------------|----------------------|-----------------------|
    
    
    |-16--14--13----13--|-11--11-13-14----13--11--|-9--9-11-13----11--9---|
    |-----11------------|-------------------------|-6--6--------------6---|
    |-17------13----13--|-11--11-13-15----13--11--|------11-13----11------|
    |-------------------|-------------------------|-----------------------|
    |-------------------|-------------------------|-----------------------|
    |-------------------|-------------------------|-----------------------|
    
    
    |-8--8-10-12----15--|-13--------------------------|-6-----------------8-10-11--|
    |-5--5----------11--|-10--6-6-6--6-6-6--6-6-6--6--|-------------11-11----------|
    |------10-12--------|-----------------------------|-7--10--(10)--7--7-8-10-12--|
    |-------------------|-----7-7-7--7-7-7--7-7-7--7--|-----8---(8)----------------|
    |-------------------|-----------------------------|----------------------------|
    |-------------------|-----------------------------|----------------------------|
    
    
    |-13-----13--13-14-16--|-18------21--|-20--17----13--|-14----(14)--18---|
    |------------------13--|---------17--|-16------------|------------------|
    |-13-----13--13-15-----|-18----------|-----17----14--|-15----(15)--18---|
    |----------------------|-------------|---------------|------------------|
    |----------------------|-------------|---------------|------------------|
    |----------------------|-------------|---------------|------------------|
    
    
    |-17--13----13--|-14----(14)--18--|-17--13--------|-------------|
    |---------------|-----------------|-----------15--|-16------19--|
    |-17--14----14--|-15----(15)--18--|-17--14--------|---------16--|
    |---------------|-----------------|-----------15--|-16----------|
    |---------------|-----------------|---------------|-------------|
    |---------------|-----------------|---------------|-------------|
    
    
    |-----9----6--|-8--8----12----15--|-13--1-1-1--1-1-1--1-1-1--1---|
    |-18--6-------|-5--5-15-----------|-10---------------------------|
    |-15-------6--|---------12----15--|-----2-2-2--2-2-2--2-2-2--2---|
    |-------------|------15-----------|------------------------------|
    |-------------|-------------------|------------------------------|
    |-------------|-------------------|------------------------------|
    
    
    |-----1--(1)-------8-10-11-|-13-----13--13-14-16--|-18-----18--18-16-14---|
    |-11---------11-11---------|------------------13--|---------------13-11---|
    |-----3--(3)-------8-10-12-|-13-----13--13-15-----|-18-----18--18---------|
    |-12---------12-12---------|----------------------|-----------------------|
    |--------------------------|----------------------|-----------------------|
    |--------------------------|----------------------|-----------------------|
    
    
    |-16--14--13----13--|-11--11-13-14----13--11--|-9--9-11-13----11--9---|
    |-----11------------|-------------------------|-6--6--------------6---|
    |-17------13----13--|-11--11-13-15----13--11--|------11-13----11------|
    |-------------------|-------------------------|-----------------------|
    |-------------------|-------------------------|-----------------------|
    |-------------------|-------------------------|-----------------------|
    
    
    |-8--8-10-12----15--|-13--------------------------|-6-----------------8-10-11--|
    |-5--5----------11--|-10--6-6-6--6-6-6--6-6-6--6--|-------------11-11----------|
    |------10-12--------|-----------------------------|-7--10--(10)--7--7-8-10-12--|
    |-------------------|-----7-7-7--7-7-7--7-7-7--7--|-----8---(8)----------------|
    |-------------------|-----------------------------|----------------------------|
    |-------------------|-----------------------------|----------------------------|
    
    
    |-13-----13--13-14-16--|-18------21--|-20--17----13--|-14----(14)--18---|
    |------------------13--|---------17--|-16------------|------------------|
    |-13-----13--13-15-----|-18----------|-----17----14--|-15----(15)--18---|
    |----------------------|-------------|---------------|------------------|
    |----------------------|-------------|---------------|------------------|
    |----------------------|-------------|---------------|------------------|
    
    
    |-17--13----13--|-14----(14)--18--|-17--13--------|-------------|
    |---------------|-----------------|-----------15--|-16------19--|
    |-17--14----14--|-15----(15)--18--|-17--14--------|---------16--|
    |---------------|-----------------|-----------15--|-16----------|
    |---------------|-----------------|---------------|-------------|
    |---------------|-----------------|---------------|-------------|
    
    
    |-----9----6--|-8--8----12----15--|-13--1-1-1--1-1-1--1-1-1--1---|
    |-18--6-------|-5--5-15-----------|-10---------------------------|
    |-15-------6--|---------12----15--|-----2-2-2--2-2-2--2-2-2--2---|
    |-------------|------15-----------|------------------------------|
    |-------------|-------------------|------------------------------|
    |-------------|-------------------|------------------------------|…
  • Intro:
    e-----------------------
    B-----------------------
    G--5-5-5-5-3-3-3--------
    D--5-5-2/3-3-3-3--------
    A--2/3-----0/1-1-1-0-1-3
    E-----------------------
    
    
    Verse:
    
    e---------------------------
    B---------------------------
    G----------------3/53-3-3/5
    D--5-5-5-5-5-5-5-3/53-3-3/5
    A--5-5-5-5-5-5-5-1/31-1-1/3
    E--3-3-3-3-3-3-3------------
    
    
    Chorus:
    
    e-----------------------
    B-----------------------
    G--5-5-5-5-3-3-3--------
    D--5-5-2/3-3-3-3--------
    A--2/3-----0/1-1-1-0-1-3
    E-----------------------
    
    
    Verse…
  • Standard tuning: EADgbe
    
    
    e|------------------------------------
    b|0-0-2-4-0------2-0-0--0-0-2-4-0-4-7~
    g|----------0-1-0---------------------
    D|------------------------------------
    A|------------------------------------
    E|------------------------------------
    
    
    e|---------------------------------------
    b|7-9-7-4--4-2-0-2-4-2-0-0--0-0-2-4-2--0-
    g|------------------------------------0--
    D|---------------------------------------
    A|---------------------------------------
    E|---------------------------------------…
  • Tuning: Standard
    
    
    e|-------------------------1-3-5---5-3-1-3-1-0---0--------------------------
    B|---------------1-3-5---5-------------------------3-3-5-6-5-3-1-1-3-5------
    G|-----2-------2------------------------------------------------------------
    D|-2-2---2---2--------------------------------------------------------------
    A|--------------------------------------------------------------------------
    E|--------------------------------------------------------------------------
    
    e|--------------------------------------------------------------------------
    B|-3-1-0-0-1-3--6-55555555--------------------------------------------------
    G|--------------------------------------------------------------------------
    D|--------------------------------------------------------------------------
    A|--------------------------------------------------------------------------
    E|--------------------------------------------------------------------------…
  • E|-----10-------10---12--12131213/---|
    B|---7--------7-----------^^^hp^^^-13-|
    G|-7--------7-------------------------|
    D|------------------------------------|
    A|------------------------------------|
    E|------------------------------------|…
  • Standard Tuning 
    e-
    b-
    g-
    d-
    a-
    e-
    
    
    
    Intro:
    
    --10--9--7--5----10--9--7--5------------------------------------
    ------------------------------5---5--7--8--7--5--3----0--3------
    ----------------------------------------------------------------
    ----------------------------------------------------------------
    ----------------------------------------------------------------
    ----------------------------------------------------------------
    
    
    About…
  • Standard tunning(guitar): EADGBe
    
    Standard tunning(bass): EADG
    
    Guitar plays with distortion
    bass has to be played by slapping and picking
    
    
    Bass: Intro
    G|--------4------------------------------------------------------------------|
    D|-------------6-------------------------------------------------------------|
    A|-2-2-2---------------------------------------------------------------------|
    E|----------4-----2----------------------------------------------------------|
    
    
    Guitar:…
  • ----------------------------------------------------
    ----------------------------------------------------
    ----------------------------------------------------
    -----2---2---2-3----2----2---2-0--------------------
    ---0---0---0-----0----0----0------------------------
    ----------------------------------------------------…
  • 1--------7----10--|--------7----10--|--10-12---12-10-7---7--7-----------|
      2---8------8------|---8-------8-----|---------7------------------10--8--|
      3-7---7-----------|-7---7-----------|-----------------------------------|…
  • Only two strings (G+D) are needed. 
    
    G| 7-4-2--7-4-2--7-4-2-4-2-
    D| ------------------------
    
    G| -----64-7-7-6-4-2-
    D| 3-2-3--------------
    
    G| 7-4-2--7-4-2--7-4-2-4-2-
    D| ------------------------
    
    G| ------4-6-7--7-9-7
    D|…
  • Intro :
    
    I--10--I
    I--9---I
    I--10--I
    I------I
    I------I
    wah up as the chord fades out
    
    I------I
    I--5/--I
    I------I
    I------I
    I------I
    I------I
    
    
    Prelude   (wah with the beat)
    
    I--------------------------------------------------------I
    I------------------X-X-X-X-X-X---------------------------I
    I-------5----------X-X-X-X-X-X----------5-------------7--I
    I---5h7---7--5--7--X-X-X-X-X-X------5h7----7--5--7----7--I
    I--------------------------------------------------------I
    I--------------------------------------------------------I
    
    
    Riff-A
    
    I---------------------------------I------------------------------I
    I---------------------------------I------------------------------I
    I---------------------------------I------------------------------I
    I--5/7----------------------------I--5/7-----------------5-------I
    I---------5--------------------3--I----------5-------5/7---5-----I
    I------5-----8--5--3--5---3--5----I-------5-----8--5-------------I
    
    I---------------------------I-----------------------------I
    I---------------------------I-----------------------------I
    I----------------------2*/--I-----------------------------I
    I--------------------2------I-----------------------5-----I
    I-----------3--5--6---------I--75--------3----5/7-----5--I
    I--0--3--5------------------I------8--53----5------------I
    
    
    Riff-B
    
    I------------------I-------------------I------------------------------------------I
    I------------------I-------------------I------------------------------------------I
    I------------------I----------------2--I------------------------------------------I
    I------------------I-------2---4--5----I---------------------------2--------------I
    I----------------3-I--5--6---5---------I----------------3----5--6-----5--3--5--3~~I
    I--3--5--5--3--5---I-------------------I--3--5--5--3--5---------------------------I
    
    
    Fill-1…
Наверх