Аккорды «Peter Frampton»

Peter Frampton
Уроженец Бекенхэма Питер Фрэмптон (р. 22 апреля 1950) первый интерес к музыке проявил в семь лет, когда обнаружил на чердаке бабушкино банджолеле (помесь банджо и укулеле). Освоив этот инструмент самостоятельно, мальчик выпросил у родителей гитару и к 10 годам стал членом школьных бэндов "The Little Ravens" и "George & The Dragons" (участником последней был также Дэвид Боуи). Затем были "The Trubeats" и "The Preachers" (руководимые Биллом Уайманом), а первый успех к Питеру пришел в 16 лет, когда… Читать полностью... Уроженец Бекенхэма Питер Фрэмптон (р. 22 апреля 1950) первый интерес к музыке проявил в семь лет, когда обнаружил на чердаке бабушкино банджолеле (помесь банджо и укулеле). Освоив этот инструмент самостоятельно, мальчик выпросил у родителей гитару и к 10 годам стал членом школьных бэндов "The Little Ravens" и "George & The Dragons" (участником последней был также Дэвид Боуи). Затем были "The Trubeats" и "The Preachers" (руководимые Биллом Уайманом), а первый успех к Питеру пришел в 16 лет, когда он попал в состав "The Herd", клепавших шлягеры для английских подростков. В 1969 году Фрэмптон вместе с экс-участником "Small Faces" Стивом Марриоттом организовал хард-роковый проект "Humble Pie". В составе этой команды он записал пять альбомов, но недовольный направлением, в котором продвигались "HP", ушел делать сольную карьеру. Следующие пять лет прошли для Питера в напряженной работе: он сочинял песни, записывал альбомы, гастролировал, а также появлялся в качестве гостя на пластинках других музыкантов (в частности у Джорджа Харрисона и Гарри Нильссона). Число поклонников Фрэмптона постепенно росло, но удача улыбнулась ему только после выхода четвертой полнометражки, "Frampton". Диск поднялся в "Billboard" на 32-ю строчку и стал золотым. Однако настоящий успех артисту принесли не студийные работы, а живые выступления, на которых Питер исполнял композиции по другому, вовсю используя возможности устройства "talkbox" (девайс помогал имитировать человеческий голос с помощью гитары). Апофеоз наступил, когда концерт в Сан-Франциско был издан в виде двойного альбома "Frampton Comes Alive!". Эта работа, моментально взлетевшая на вершину американских чартов и проведшая там 10 недель, стала одним из самых продаваемых концертников в истории рок-музыки – ее тираж составил более 16 миллионов экземпляров. Сопутствующее турне принесло Питеру несколько десятков миллионов долларов, а журнал "Rolling Stone" назвал его "артистом года". Возможно, после всей этой шумихи Фрэмптону следовало отдохнуть, но он вернулся в студию и записал платиновый диск "I'm In You", на котором в качестве гостей появились Мик Джеггер и Стиви Уандер. В 1978-м Питер снялся в битловском фильме "Sgt. Pepper's Lonely Hearts Club Band", и хотя картина провалилась, музыкант получил дополнительную возможность покрасоваться на обложках журналов. В том же году Фрэмптон серьезно пострадал в автокатастрофе, однако уже в 1979-м вернулся с золотым альбомом "Where I Should Be". Две последующих работы были довольно слабыми, и Питер на несколько лет залег на дно. В 1986-м Фрэмптон имел некоторый успех с песней "Lying", но гораздо больше лавров ему досталось на следующий год, когда он записывался и гастролировал вместе с Боуи. Позже Питер хотел возобновить партнерство с другим бывшим коллегой, Стивом Марриоттом, но смерть последнего не дала довести идею до конца. В 1995-м Фрэмптон попытался вернуть былую славу, выпустив концертник под названием "Frampton Comes Alive II". Затея не удалась, и конец 90-х гитарист провел в гастролях с такими коллективами как "Bill Wyman's Rhythm Kings", "Ringo Starr's All-Starr Band" и "Lynyrd Skynyrd". Наступление миллениума музыкант отметил выпуском своего первого DVD, "Live in Detroit", а в 2003-м вышла его новая студийная работа "Now". Альбом был встречен довольно тепло, а песни "Verge Of A Thing" и римейк битловской "While My Guitar Gently Weeps" получили неплохое количество радиоэфиров. Скрыть...
Популярные аккорды Peter Frampton:
алфавиту | просмотрам | случайно
  • VERSE
    D
    I wonder how you're feeling there's ringing in my ears.
        Bm                           Bb
    And no one to relate to 'cept the sea.
    D
    Who can I believe in ?   I'm  kneeling on the floor.
          Bm
    There has to be a…
  • G                Bm          Em                C        F7
     SHADOWS GROW SO LONG BEFORE MY EYES, AND THEY'RE MOVING, ACROSS THE PAGE
        G            Bm            Em   C                   F7
     SUDDENLY THE DAY TURNS INTO…
  • Intro:
    
    E G D E G A (2x)
    E D C G D B (2x)
    E D A (2x)
    
    E		  B		C# D
    We are the people one and all
                   A E G    E
    From deliverance to the fall
    		B		C# D
    From the battle and the heat
    	    A E G  E
    To our triumph…
  • D - F - C - D)
    
    CHORDS:
    
    A
    Woke up this morning
    
    E
    with a wine glass in my hand
    
    A
    blah blah, blah blah, why the hell did I die?
    
    A
    must have been a dream
    E
    I don't believe where I've been
    
    A
    come on, let's do it again
    
    D
    Do…
  • intro: A5add9 A Aadd9 A, A5add9 A Aadd9 A, E E Esus4 E, E E Esus4 E 
    
    Verse 1:
    
    A    Aadd9  A Aadd9   Am   Asus4 Am  Am7           D  D5add9 D D5add9
    Come to the island to find peace And seek tranquility
    A  Aadd9 E…
  • intro: E      A     E      A
    
    B          A            E
    i love to hear you talk
    
    B            A              E
    i love the things you say
    
    B           A           G              B
    i love to hear you speak - my name
    
    B…
  • Intro: E  E  Am  Am   G  G  Am  B7
    
    Verse:
    E                                       Em
    Don?t you see? It wasn?t meant to be
    (Em)             E7
    Keep on till you die 
         Am
    When lying down
                B7
    We kick…
  • Standard Tuning
    
    During the intro with the awesome keyboard solo by Bob Mayo.
    
       4/4 time
       :D        F       C         D   A C :
      After that comes the guitar line
    e        10
    b  13 10     13  10
    g                   12…
  • The tuning (from 6th string to 1st)is DADF#AF#, but since you might break your first 
    (you have to go from E to F#)
    I'll go 1 full step down....
    
    CGCEGE with CAPO ON 2ND FRET
    
    * strum
    
    INTRO:
    
    E|--0-0-0-0--0-0-----5-3-1-0--------|…
  • It is really fun to play and I highly recommend it (tune to open G). 
    Notes: Open G tuning (DGDGBD)
    
    [start]
                                                              3x
    D||---12p9p0---------------------|------------------------||
    B||------------------------------|--0h---1p-0/-3---1-----||
    G||*---------0--0----------------|--0-------0-------0----*||
    D||*------------0----------------|--0----2p-0/-4---2----*||
    G||-------------0----------------|--0---------------------||
    D||------------------------------|------------------------||
    repeat…
  • A
    I packed up my pony
    A
    I loaded my Sony
    A
    No one could see me for dust
    
    A
    I'm leaving my friends there
    A
    It's not that I don't care
    A
    I just need to chip off the dust
    
    A
    I really belong here
    A
    But something…
  • 4 measures of drums, then:
    Intro:
    E --------------8------------------------------8--------|
    B --7--8--10-------10--8--7----7--8--10--------10--8--7-|
    G ------------------------------------------------------|
    D ------------------------------------------------------|
    A…
  • Key:
    
    b = bend
    r = release bend
    p = pick off
    h = hammer on
    / = slide up
    \ = slide down
    brp = bend, release the bend, then pick off
    
    e|------------------------------------10-9--12-9-10-9----------------------|
    B|----------------------------------------10---------10--7-8-10-12b-r-10---|
    G|----6-7-9--7-6----------------6-7-9-------------------9------------------|
    D|-5/7----------7---------7-9-10-------------------------------------------|
    A|---------------7--7-9-10-------------------------------------------------|
    E|-------------------------------------------------------------------------|
    
    e|-------12121212-10101010\9-99\7-77\5-12p9---10p7-----------------15-17---|
    B|-12-10-----------------------------------10-----8-7-8/10-------15--------|
    G|----------------------------------------------------------14/15----------|
    D|-------------------------------------------------------------------------|
    A|-------------------------------------------------------------------------|
    E|-------------------------------------------------------------------------|
    
    e|-17b-17b-17brp15---15-17--19-17--15-17-----------------------------------|
    B|----------------17--------------------15-17--15h17p15-14------------13---|
    G|--------------------------------------------------------14\12--12-14-----|
    D|-------------------------------------------------------------14----------|
    A|-------------------------------------------------------------------------|
    E|-------------------------------------------------------------------------|
    
    e|---12--15p12--15-12-12---------------------------------------------------|
    B|-15--------15-----15--15-13------------------------------------------13--|
    G|---------------------------14-12-14--12h14p12-------------------12-14----|
    D|---------------------------------------------14-12--12-14--12-14---------|
    A|--------------------------------------------------15---------------------|
    E|-------------------------------------------------------------------------|
    
    e|---14-15-14-12--15p12--15-12-12------------------------------------------|
    B|-15-----------------15-----15--15-13-------------------------------------|
    G|------------------------------------14-12-14-----------------------------|
    D|-------------------------------------------------------------------------|
    A|-------------------------------------------------------------------------|
    E|-------------------------------------------------------------------------|…
  • Intro:
    
    F7M  - G (Gsus4 - G5) x4
    
    VI: 3-4-5 Chord 1 - Chord 2 - Am - Am/G - D
    
    Chord 1: x05050
    Chord 2: x04030
    (don't know the names of both...)
    
    Verse 1:
    
    F7M          G (Gsus4 - G5)  
    Lines on my head…
  • Tuning: Standard Tuning
    
    Intro:
    
    e|-------------------------------------------------------------------|
    B|-------------------------------------------------------------------|
    G|-------------------------------------------------------------------|
    D|--5----------------------------------------------------------------|
    A|--3--5----5-5-5-5-5-5--7-9-10-9--10-9------------------------------|
    E|-----3----2-3-2-3-2-3--5-5-5--5--5--5------------------------------|
    
    Fill:
    
    e|-------------------------------------------------------------------|
    B|-------------------------------------------------------------------|
    G|------9----------11------------------------------------------------|
    D|--/11---11---/11---------/11---------------------------------------|
    A|-------------------------------------------------------------------|
    E|-------------------------------------------------------------------|
    
    Chorus:
    e|-------------------------------------------------------------------|
    B|-------------------------------------------------------------------|
    G|-------------------------------------------------------------------|
    D|--5----------------------------------------------------------------|
    A|--3--5----5-5-5-5-5-5--7-9-10-9--10-9------------------------------|
    E|-----3----2-3-2-3-2-3--5-5-5--5--5--5------------------------------|
    
    
    Order:
    Intro
    Fill
    Chorus
    Fill
    Chorus
    
    Repeat…
  • TUNING: DROP D
    | /  slide up
    | \  slide down
    | h  hammer-on
    | p  pull-off
    | ~  vibrato
    | +  harmonic
    | x  Mute note
    ============================================================================
    
    Clean
    E|---------------------------------------------------------|
    B|---------------------------------------------------------|
    G|----6---------6---------6---------5----------4---------3-|
    D|---6---6-----6---6-----4---4-----3----------2---2-----1--|
    A|--6-----6---6-----6---4-----4---3----------2-----2---4---|
    D|-6-------6-9-------9-4-------4-3--------1-2-------2-1----|
    
    Wah…
  • Bass Tab
    Tuning : EADG
    Tempo  : 115 bpm
    
    
    Intro (00:01) Guitar/bass/drums   Play x2
    G|----------|----------|-----------|------------|-
    D|----------|----------|-----------|------------|-
    A|----------|----3-4-5-|-55--5-/-3-|-33--5--3---|-
    E|-3--33-33-|-33-------|-----------|----------3-|-
    
    G|----------|----------|-----------|------------|-
    D|----------|------5-3-|-33--5-3---|------------|-
    A|----------|----5-----|---------3-|-33--5--3---|-
    E|-3--33-33-|--3-------|-----------|----------3-|-
    
    
    Verse1…
  • Tuning: standard
    
       Fade in
    e|--------------12--12-12-12—b15r14-12-14-12---12-12----12-15-15-14h15p14p12--|
    B|------------------------------------------14-------14-----------------------|
    G|--(9)--9-9-9~---9-----------------------------------------------------------|
    D|----------------------------------------------------------------------------|
    A|----------------------------------------------------------------------------|
    E|----------------------------------------------------------------------------|
    
    e|---12---12-12---12----------------------------------------------------------|
    B|14---15------15-----15-14h15p14p12---12-----12------------------------------|
    G|-----------------------------------14--14-12--12-11-9----------9------------|
    D|------------------------------------------------------11-9h11p…
  • intro
    |-2--2-2--2-2------------------2-2--2-2--2--2-2--2-2-|
    |-2--2-2--2-2--1--1-1--1-1--2--2-2--2-2--2--2-2--2-2-|
    |-2--2-3--2-3--1--1-3--1-3--3--3-3--3-3--2--2-3--2-3-|
    |-2--2-4--2-4--1--1-2--1-2--4--4-4--4-4--2--2-4--2-4-|
    |--------------1--1-1--1-1---------------------------|
    
    |-2--2-2--2-2------------------2-2--2-3-4-|
    |-2--2-2--2-2--1--1-1--1-1--1--2-2--2-3-4-|
    |-2--2-3--2-3--1--1-3--1-3--1--3-3--3-4-5-|
    |-2--2-4--2-4--1--1-2--1-2--1--4-4--4-5-6-|
    |--------------1--1-1--1-1--1-------------|
    
    |-2--2-2--2-2-|---7-7--7-7--6-6-|
    |-2--2-2--2-2-|---7-7--7-7--6-6-|
    |-2--2-3--2-3-X4--8-8--7-7--7-7-|
    |-2--2-4--2-4-|---9-9--7-7--8-8-|
    |-------------|-----------------|
    |-------------|-----------------|
    
    |-2--2-2--2-2--2--2-2--2-2---7-7--7-7--6-6-|
    |-2--2-2--2-2--2--2-2--2-2---7-7--7-7--6-6-|
    |-2--2-3--2-3--2--2-3--2-3---8-8--7-7--7-7-|do…
  • e:----------------------------------------------------------------------|
    B:----------------------------------------------------------------------|
    G:7---7-7-7-6p5--7-7-7-6p5h8-4h5p4/2------------------------------------|
    D:7-7-7-7-7------7-7-7----------------3p2p0--2--------------------------|
    A:-----------------------------------------------2-----------3----------|
    E:-------------------------------------------------3p2p0----------------|
    
    
    e:7-9-10-9-7-12-12p10p9------------------------------------------------|
    B:----------------------12-10-9-9B-7----------2~~~~~~~~2-1-0-2-3-3-5---|
    G:-----------------------------------9-7-5-----------------------------|
    D:---------------------------------------------------------------------|
    A:---------------------------------------------------------------------|
    E:---------------------------------------------------------------------|
    
    e:-----------------------------------------------|
    B:-5h7p5-4h5-------------------------------------|
    G:-----------------------------------------------|
    D:----------------------------2h3h5--------------|
    A:------------3--------2h3h5--------5p3p2--------|
    E:-----------------3-5--------------------3-0----|
    
    e:---------------------------------------------------|
    B:---------------------------------------------------|
    G:0-2-3-0-5~~~5/7-5---3-5-7--5-7-8---7-5-7---5-3-0---|
    D:---------------------------------------------------|
    A:---------------------------------------------------|
    E:---------------------------------------------------|
    
    e:-------------5-55-55-55-55-55-55-5555-55-5-55-55-7-8-10--|
    B:-------0-------------------------------------------------|
    G:-----0---------------------------------------------------|
    D:---2-----------------------------------------------------|
    A:--3------------------------------------------------------|
    E:-0-------------------------------------------------------|
    
    e:-8-10-12-7---------7---------7-------------------------|
    B:-----------7-9-------7-9-------7-----------------------|
    G-----------------------------------7-9-9/10-9-7---------|
    D:-------------------------------------------------------|
    A:-------------------------------------------------------|
    E:-------------------------------------------------------|…
Наверх