Аккорды «Phish»

Phish
Phish — американская рок-группа, примечательная своими джем-сейшнами, импровизациями и постмодернистским смешением жанров. Phish была образована в 1983 году в университете Вермонта. Четыре ее участника выступали вместе 21 год, пока не распались в августе 2004 года. Их музыка содержала в себе элементы широкoго спектра жанров, и каждый их концерт был оригинальным в плане исполнения песен, порядка их появления и способa, которым они исполнялись. Хотя группа и получила мало эфирного времени на… Читать полностью... Phish — американская рок-группа, примечательная своими джем-сейшнами, импровизациями и постмодернистским смешением жанров. Phish была образована в 1983 году в университете Вермонта. Четыре ее участника выступали вместе 21 год, пока не распались в августе 2004 года. Их музыка содержала в себе элементы широкoго спектра жанров, и каждый их концерт был оригинальным в плане исполнения песен, порядка их появления и способa, которым они исполнялись. Хотя группа и получила мало эфирного времени на радио или таких телеканалах, как MTV, Phish собрали много преданных последователей из уст в уста -через Phish.net (изначально был только список рассылки, потом новостная появилась группа Usenet и, наконец, веб-сайт), а также обмен живыми записями. Официальный сайт: http://www.phish.com Скрыть...
Популярные аккорды Phish:
алфавиту | просмотрам | случайно
  • Chords Used: C-G-Am-F
    Standard Tuning
    
    (verse)
    C                     G                       Am
    Welcome this is a farmhouse
          F                                  C
    We have cluster flies alas
        G…
  • INTRO
      1  a 2  3 e  a 4     1 + 2 + 3 + 4 +  	
    G--------------------|-----------------|
    D--------------------|-----------------|	6x
    A--------------3-5---|-----------------|
    D-0--0----5-7--------|-0--0----3-3-5-5-|
    
    VERSE…
  • Chords: C, D, G, G7, A
    
    
       D            C
    Little Suzy Greenberg
               G
    with her head caved in
      D                C
    soon will let me drown
             G
    beneath the undertow
     D              C
    you better put that woman…
  • Intro
    
    
    g--------------------------------------------------------
    d--5------3----------------------------------------------
    a-----5-------3----5----5--------3-----------------------
    e----------------------------6--------3------------------
    
    
    verse
    
    g-----------------------------------
    d------------------------------------
    a--------3---3--5-5------------------
    e-3--6-------------------------------
    
    fill…
  • The woman was a dream I had
           A              D
    Though rather hard to keep
        G                 D
    for when my eyes were watching hers
         A
    They closed,
                      D
    And I was still asleep.
    
        A
    For when my…
  • intro-hit the D chord, with wah (used in the whole song)
    after you hit the D mute the strings and keep the beat. This goes throughout
    the whole verse.
    Verse:
    
            Think of London
    D
            Small City
    D
            Dark,
    D…
  • (play these chords in the intro also)
    
    your time is near the mission's clear
            E                               E
    It's later than we think
             D                      A
    before you slip into the night
            E…
  • e--------------------------------4------------------6p4---3-----------|
    B----------3--6---------------3------------------3------5---6p4---3---|
    G-------5------------------5------------------5-----------------6-----|
    D-3--6---------------3--6---------------3--6------------------------6-|
    A---------------------------------------------------------------------|
    E---------------------------------------------------------------------|
    
    e--------------------------------4------------------6p4---3---------6-|
    B----------3--6---------------3------------------3------5---6p4---3---|
    G-------5------------------5------------------5-----------------6-----|
    D-3--6---------------3--6---------------3--6--------------------------|
    A---------------------------------------------------------------------|
    E---------------------------------------------------------------------|…
  • ----------------------------------------------------------------------------|
    ----------------------------------------------------------------------------|
    ---------------7-------9-7-7-10-9-9----7-7----------------------------------|
    ----7-7-10-9-9---10-10--------------10-----9-10-10-7------------------------|
    --7--------------------------------------------------7----------------------|
    ----------------------------------------------------------------------------|
    
    ----------------------------------------------------------------------------|
    ----------------------------------------------------------------------------|
    ---------------7-------9-7-7-10-9-9----7-7----------------------------------|
    ----7-7-10-9-9---10-10--------------10-----9-7------------------------------|
    --7-------------------------------------------------------------------------|
    ----------------------------------------------------------------------------|
    
    Repeat…
  • G
    My glance is always darting, when I stroll the avenue
    G
    Avoiding all the obstacles that terrorize my view
    C                                                                 G
    If you are here with me, I trust you to lead…
  • Tuning:Standard, Capo at 5 (tab is written with respect to capo, 0 means 5th fret of guitar, open on capo)
    
    Intro/Verse: (repeated)
    e|---x--x----x--x----x--x----x---------------0--0----0--0----x--x--x--x----|
    B|---3--3----3--3----3--3----1----0----------1--1----1--1----3--3--3--3----|
    G|---0--0----x--x----0--0----0-0----0---2----0--0----0--0----0--0--0--0----|
    D|---0--0----4--4----3--3----3---3----3------2--2----1--1----0--0--0--0----|
    A|---2--2----2--2----2--2----2---------------3--3----3--3----2--2--2--2----|
    E|---3--3----3--3----3--3----3-------------------------------------------3-|
    
    Bridge:…
  • (main riff)
    G-----------------------------------------------------------
    D-------------------------4-7-------6-9---------------------
    A-------4-4--5-5--4-4--5-------5>7--------------------------
    E--5-5------------------------------------------------------
    
    (alternate…
  • Intro:
    G|--------------------------|
    D|--7-7-5-4-----------------|
    A|----------7-7-5-4---------|
    E|------------------7--3--3-|
    
    Verse:
    G|-----------------------------------------------------------------------|
    D|--------------------------------------------------------4-5--------4-5-|
    A|--------4-5---------4-5---------4-5---------4-5--0--2-3-----0--2-3-----|
    E|-0--2-3------0--2-3------0--2-3------0--2-3----------------------------|
    
    G|-------------------------------------------2-------2--------2----------|
    D|-----------------------------------------------------------------------|
    A|--------4-5---------4-5-----------------0-----0--0----0-0--------------|
    E|-0--2-3------0--2-3------2--2-2--1--1-1-----------------------2-3-4----|
    
    Chorus:
    G|------------------------------------------------------------------------|
    D|------------------------------------------------------------------------|
    A|-------------------------------------0--2--3--0--2--3-------------------|
    E|-0--2--3--0--2--3--0--2--3--0--2--3--------------------0--2--3--0--2--3-|
    
    G|----------------------2------2-------2-|
    D|---------------------------------------|
    A|-------0-----------0-----0-0----0--0---|
    E|-2--4-----1--3--4----------------------|
    
    Organ…
  • Verses:
      ----------------------------14b(1/2)----------------------|
      ----11--11-----9----9/11----------------------------------|
      ----12--12-----10--10/12----------------------------------|
      ----13--13-----11--11/13----------------------------------|…
  • Intro.(first 2 chords)
    
    Bar Chords-Gm G#m
    
    The Groove- Get the Wah Wah Ready.
    
    A#(do some wah wah muffles, and hit lower notes of the chord)->Gm->G#m
    
    
    The verses are underlined by this groove.
    
    
    A#…
  • G----------------7----------|
    D--------------7---7h9------| repeat 6x
    A------------7---------7----|
    E---0-00-00-----------------|
    
         G------                     G------
         D------                     D------
         A------…
  • e|-------------------------------------------------|
    B|-------------------------------------------------|
    G|-------------------------9--9h11-9h11------------|
    D|--------------------9h11----0----0----9h11----11v| a couple…
  • B   Em         C     D
    I'm needing
    
                     G      D
    less restraint before
    
    B   Em         C     D
    I'm needing
    
                                    G
    to hit the lights and close the door
    
        D         Em…
  • Intro:
        1 2 3 1 2 3 1 2 3 1 2 3 1 2 3 1 2 3 1 2 3 1 2 3 1 2 3 1 2 3 1 2 3 1
    2 3
    E-|-2-----7-----2-----7-----2-----3-2-0-0-------------------------------------|
    B-|-3-----8-----3-----8-----3-----3-3-0-2-----3-----5-----------10----8-------|
    G-|-3-----7-----2-----7-----2-----2-2-0-2-----2-----6-----------9-----7-------|
    D-|-0-----0-----0-----0-----0-----0-0-0-2-----4-----5-----------11----9-------|
    A-|-------------------------------------0-----0-----0-------------------------|
    E-|---------------------------------------------------------------------------|…
  • Intro:  A  C  D  C  F  A  G(for two bars)
    Verse:  C  Bb  F  C
                C  Bb  D(for two bars)  prelude to/last line before chorus
    Bridge (brain dead...):  Same as verse chords
    Chorus (same as intro):  A  C  D  C  F  A…
  • Intro
    
    -------------------|
    -------------------|
    ---------------2---|  12x
    ---3---3---------3-|
    ---------1h2h3-----|
    -1-----------------|
    
    verse one
    -------------------|
    -------------------|
    ---------------2---|
    ---3---3---------3-|…
  • The intro is just switching between G and C.  Listen to the cd to get the rhythm down.
    
    G  C                      G C                             G  C
    Oh, to be Prince Caspian afloat upon the waves (3x)
    G  C…
  • Intro:
    
    ---4h6-6--4h6-6----------------|
    ---4h6-6--4h6-6----------------|
    -----------------6-6--8-8------|
    -----------------6-6--8-8------|
    -----------------4-4--6-6------|
    -------------------------------|
    
    Verse:
    This part…
  • Intro
    |-----------------10------10---------10-----10-----10----10-10--|
    |--6--6--6--6-----10---x--10-----10---------10-----10----10-10--|
    |--5--5--5--5-----10---x--10-----10---------10-----10----10-10--|
    |--4--4--4--4---------------------------------------------------|
    |---------------------------------------------------------------|
    |---------------------------------------------------------------|
    
    
    Verse…
  • e-10-------8-------------------------------------------------------|
    B------------------0h1-------------1-----3------1------1----1---0--|
    G----0---------0-------0---------0---------------------------------|
    D------9-----7-----------2-0---2---------3------2------2----2---0--|
    A-10-------8------3----------3-------------------------------------|
    E--------------------------------------3------3------3----3----3---|
    
    That…
  • Main theme:
    
       (D)                  (C)              (G)      (D)
    
    e------10--12p10-----------8--10p8------------7--------5-----------|
    B----------------10----------------8---8----8---8----7---7---------|
    G--/11--------------11--/9-----------9----7--------7---------------|
    D------------------------------------------------------------------|
    A------------------------------------------------------------------|
    E------------------------------------------------------------------|…
  • Intro
    
    
    |--------------------------------------------2--------------------2--------2--2--|
    |---------x--x--x--x-------------4--2--------4--------4--2--------2--------4p(2)-|
    |--organ----------------------------2-----------------2-----------2--------2-----|
    |---------------------2--(2)--------------2--------2-----------2--------2-(2)----|
    |--------------------------------------------------------------------------------|
    |--------------------------------------------------------------------------------|
    
    
    |--(2)-----2--------2--------2-----------------------------------------------------------|
    |--(4)-----2--------5--------4--2--------5--4--------2--------5--4-----5-----------5--4--|
    |--(2)--------------------------------------------------------------------4--------------|
    |--(2)--2--------2-----2-----------2--------------2--------2--------------------2--------|
    |----------------------------------------------------------------------------------------|
    |----------------------------------------------------------------------------------------|
    
    
    Chorus…
  • Intro: Just a C to a G (320010).  Listen to the song for the rhythm.
    
    Chorus:
    C                  G    
    Things are falling down on me
    C               G            C G   Am7  G
    Heavy things i could not see
    C              G…
  • E ----------------l------------l----------------l-46-8-810--6--l
    B --8--8-8--------l-3-5--3-----l----------------l-----7-------6--l
    G --9----9--10----l-4----5-5---l-----5--5-8--12-l-----8-------6--l
    D --10---10----10-l-5----6---6-l---6----6----9--l-----7----------l
    A…
  • Most of the song is this:
    
    
    D  		Am				C		G
    I wanna live beneath the dirt...
    
    these are the verse chords.
    
    the one place where the chords change...you know what I mean.
    
    
    E   C   D
    
     (i'm not sure what that first chord is,…
  • Tuning:Normal
    
    
    Repeat Once
    e|--------------------------------------------------------------------------|
    B|13------------------------------------------------------------------------|
    G|-----8-10-11-10-11-10-----------------------------------------------------|
    D|----------------------9-10-12-10-9-8-9-10-8-9-----------------------------|
    A|----------------------------------------------10-8------------------------|
    E|--------------------------------------------------------------------------|
    
    2nd…
  • Main Riff
    
    E--------------------------------------------------|
    B--------------------------------------------------|
    G--------------------------------------------------|
    D---------7p0-----5p0------------------------------|
    A--------------0-------0---7p0--0--5p0--3b---------|
    E-----5--------------------------------------------|
    
    Play…
  • Main riff
    -------------------------------------|
    -------------------------------------|
    -----0-0-0-0------0-0--0-0-----------|
    -45----------45--------------------|
    -------------------------------------|
    -------------------------------------|
    
    chords
    Eb/G…
  • Intro/Ending
    -----------------------------------------------------------------
    --0--------------------------------------------------------------
    ----3-3-3-1------------------------------------------------------
    -------------3----(3-3-3-3)--------------------------------------
    
    Main…
  • Start by just sliding up on the E string then go into it
    
    the whole thing is in C#
    
    Part A
    
    E|-------------------------------------------------------------------|
    A|----4----------4--4------------------repeat 4X--------------|
    D|------------------------5--6-------------------------------------|
    G|--------6--6-----------------------------------------------------|
    
    
    Part…
  • Verses/intro
    e-------------------------------------------------------------------|
    B-------------------------------------------------------------------|
    G-------------------------------------------------------------------|
    D-------------------------------------------------------------------|
    A--5--6--7----5--6--7----5--6--7------------------------------------|
    E--3--4--5----3--4--5----3--4--5------------------------------------|…
  • Try it and see if it sounds a little better.
    
    Riff 1
    E |------------------------------------------------|
    B |------------------------------3-(let ring)------|
    G |------------------------------------------------|
    D |-------2p0-5-2-0-2----5h2-----------------------|
    A…
Наверх