Аккорды «Pitchshifter»

Pitchshifter
Ноттингемский проект Pitchshifter (в оригинале Pitch Shifter) был образован в конце 1990 года братьями Клэйденами: Джонатаном Сетом (вокал) и Марком (бас-гитара). Вооружившись педалью дисторшена и драм-машиной и почерпнув вдохновение в творчестве Big Black, Dead Kennedys и The Swans, парни взялись искать свое место в музыке. С приходом в команду гитариста-программера Джонни Картера, разделявшего их аналогово-цифровые взгляды, стало понятно, что Pitchshifter возьмут курс на индастриал. Именно… Читать полностью... Ноттингемский проект Pitchshifter (в оригинале Pitch Shifter) был образован в конце 1990 года братьями Клэйденами: Джонатаном Сетом (вокал) и Марком (бас-гитара). Вооружившись педалью дисторшена и драм-машиной и почерпнув вдохновение в творчестве Big Black, Dead Kennedys и The Swans, парни взялись искать свое место в музыке. С приходом в команду гитариста-программера Джонни Картера, разделявшего их аналогово-цифровые взгляды, стало понятно, что Pitchshifter возьмут курс на индастриал. Именно так ("Industrial") и назывался дебютный альбом, вышедший в 1991 году на лейбле Peaceville Records. Впрочем, работа получилась настолько брутальной и агрессивной, что более точным определением для нее являлось "дэт-индастриал" (сами музыканты подкорректировали это чуть позже, дав сопутствующему синглу имя "Death Industrial"). Интересно, что партии ведущего вокала на первом альбоме исполнял Марк, хотя в дальнейшем ведущим микрофоном всегда заведовал JS. В 1992-м Pitchshifter переехали с Peaceville на не менее экстремальный лейбл Earache и дебютировали там с миньоном "Submit", начиненном сладжевыми гитарами Картера и Стю Тулина. Последний из этой пары вскоре ушел, но зато в недалеком будущем группа обрела ударника в лице Ди Джея Уолтерса. Тяжелый, гипнотический, агрессивный и социально-ориентированный альбом "Desensitized" сопровождался обильными европейскими гастролями, причем полупустые ранее клубы сменились набитыми под завязку помещениями. В 1994 году Pitchshifter пошли на эксперимент, который должен был их вывести на более широкую аудиторию – они записали мини-альбом "The Remix War", в который помимо ремиксов на собственные вещи включили обработки композиций "Biohazard", "Therapy?" и "Gunshot". Этим миньоном команда хотела доказать, что агрессивная музыка может быть вполне пригодной для танцполов, и действительно добилась кое-какого успеха в этом направлении. Дальнейшее продвижение в мэйнстрим нашло отражение в полноформатнике "Infotainment?". Гроул, присутствовавший на ранних работах, практически исчез и уступил место чистому вокалу, и хотя агрессии все еще хватало, это была уже более коммерческая версия Pitchshifter. Кстати, на "Infotainment?" коллектив опробовал один интересный маркетинговый ход, поместив в конец диска около сотни собственных сэмплов, которые предлагались фанам для свободного использования. Альбом помог группе окончательно выйти из андеграунда, и свой следующий лонгплей музыканты записывали уже под прикрытием мажорного контракта MCA Records. Пополнив свои ряды экс-гитаристом Prodigy Джимом Дэйвисом, в 1998 году команда произвела на свет свой главный бестселлер - "www.Pitchshifter.com". Предваряющий альбом сингл "Genius" стал настоящим клубным фаворитом, а такие издания, как Metal Hammer и Kerrang назвали Pitchshifter будущим британского рока. Два следующих года прошли в гастролях, и за это время коллектив не только похедлайнил на британских площадках, но и нанес успешный визит в Америку, а также отметился на ряде крупных фестивалей (Ozzfest, Reading, Dynamo). К студийной работе группа вернулась в 2000 году, причем созданный усилиями авторского тандема Клэйден-Дэйвис "Deviant" получился более гитарно-ориентированным, нежели "www.Pitchshifter.com". Кстати, Картер на тот момент уже успел ретироваться, поскольку ему захотелось попробовать себя на продюсерском поприще. Следом за ним ушел и Уолтерс, так что в студии команду выручил экс-драммер Helmet Джон Станье. В качестве гостя на "Deviant" также засветился бывший лидер Dead Kennedys Джелло Биафра, а в промо-турне с Pitchshifter поехали гитарист Мэтт Гранди и барабанщик Джейсон Боулд. По окончании гастролей Мэтт ушел, и одновременно коллектив перебрался с MCA на Sanctuary Records. Несмотря на то, что альбом "PSI" получился довольно интересным, уже в 2003 году группа приостановила свою деятельность, а ее участники занялись другими проектами. Кратковременное оживление в стане Pitchshifter случилось в 2006-м, когда вместе с туром был выпущен миньон "None For All And All For One", но о полноценном альбоме речь так и не зашла. В 2007 году вышел ещё один мини-альбом, получивший название "Cohesion". В 2008 году коллектив выступил на фестивале Damnation, где делил сцену с такими группами, как Carcass и Cathedral. В 2009-м музыканты сообщили о том, что начали работу над своим новым полноформатным альбомом. Его запись проходила в нескольких местах. В конце года Тиму Рейнеру диагностировали лимфому, поэтому ему пришлось отправиться на лечение. В феврале 2010 года он начал курс радиотерапии. Однако в мае Pitchshifter приняли участие в фестивале Wakefield Rock. К началу 2011 года весь материал для нового альбома уже был полностью написан, и в начале года коллектив отправился в студию, где приступил непосредственно к записи. Релиз новой работы запланирован на 2012 год. Скрыть...
Популярные аккорды Pitchshifter:
алфавиту | просмотрам | случайно
  • Drop d tuning
    
    ~ - Let ring
    
    Intro/verse
    |-----------------|
    |-----------------|
    |-----------------|
    |-----------------|
    |-----------------|
    |-8-7--5---8-7—-5-|
    
    |---------------------|
    |-11/10----------8/10-|
    |---------------------|
    |---------------------|
    |---------------------|
    |---------------------|
    
    This…
  • Drop d tuning
    
    Intro / verse
    |---------------------------------------------------|
    |---------------------------------------------------|
    |---------------------------------------------------|
    |---------------------------------------------------|
    |---------------------------------------------------|
    |----12---12-12---15-14-14---16---16-16-16-16-17-16-|
    
    
    Later…
  • One whole step detuning (FCGD), 87 bpm.
    
    Intro and Verse
    F|----------------------------------------------------------------|
    C|----------------------------------------------------------------|
    G|----------------------------------------------------------------|
    D|-----7--7--7--3--6--4-------------------------------------------|
    
    Chorus
    F|----------------------------------------------------------------|
    C|----------------------------------------------------------------|
    G|----------------------------------------------------------------|
    D|-----70-70-70-70-70---333333333-555555555-----------------------|
    
    F|----------------------------------------------------------------|
    C|----------------------------------------------------------------|
    G|----------------------------------------------------------------|
    D|-----70-70-70-70-70---333333333-6666666666----------------------|
    
    Bridge
    F|----------------------------------------------------------------|
    C|----------------------------------------------------------------|
    G|----------------------------------------------------------------|
    D|-----4-4-4-/7--4-4-4-/7--4-4-4-0-0-00-0-----------------------|…
  • One whole step detuning (FCGD), 108bpm.
    
    Intro and Chorus
    F|----------------------------------|-----------------------------|
    C|*--------------------------------*|*---------------------------*|
    G|*--4444444444444--6666666666666--*|*---------------------------*|
    D|----------------------------------|--------44-4-4--44-----------|
    
    Verse
    F|----------------------------------------------------------------|
    C|*--------------------------------------------------------------*|
    G|*--------------------------------------------------------------*|
    D|-------7-6-5-3---24-24---24-24----------------------------------|…
  • Tabbed - by DEREKD
    
    intro-verse:distortion
    
    -------------------------------------------------------------|
    -------------------------------------------------------------|
    ------------------7------------------------------------------|
    ---9---9---9---9--7--9---9---9---9--3------------------------|
    ---9---9---9---9--5--9---9---9---9--3------------------------|
    -0-9-0-9-0-9-0-9-----9-0-9-0-9-0-9--3------------------------|
    
    verse:clean,heres…
  • Intro/Verse Riff
    
    F ------------------------
    C ------------------------
    G 0--7-6-X-X-X-X-X-5-5-7-7 
    D ------------------------
    
    Pre-Chorus Riff
    
    F ---------------------------------------------------------
    C ---------------------------------------------------------
    G…
  • Tuning is D  
              G 
              D 
              G
              B
              E
    
    ------------------------------------------------------------------------|
    ------------------------------------------------------------------------|
    ------------------------------------------------------------------------|
    ------------------------------------------------------------------------|
    ------------------------------------------------------------------------|
    -4-4----2--2/7--2-------4-4----2--2/7--2-------4-4----2--2/7--2---------|
    W/…
  • Tuning: Low to high D-G-D-G-B-E (Just drop your E and
            A strings down 1 step)
    
    Riff A:
    E------------------------------------------------------
    B------------------------------------------------------
    G--5-77-5-77-5-7b8--5555--666--------------------------
    D------------------------------------------------------
    G------------------------------------------------------
    D------------------------------------------------------
    
    Riff…
  • -Riff 1-
    E---------------------------------------|
    B---------------------------------------|
    G---------------------------------------|
    D---------------------------------------|
    A-00-------XXXX------00-------XXXX------|
    D-00-13-12-XXXX-10---00-13-12-XXXX-10---|
    
    E---------------------------------------|
    B---------------------------------------|
    G---------------------------------------|
    D---------------------------------------|
    A-77777777777777777-888888888-999999999-|
    D-55555555555555555-666666666-777777777-|
    
    
    -Riff…
  • One whole step detuning (FCGD), 162 bpm.
    
    Intro and Verse
    F:----------------------------------------------------------------|
    C:----------------------------------------------------------------|
    G:----------------------------------------------------------------|
    D:-----9-9-99-99---888--7-777------9-9-99-99---777--8-888---------|
    
    Chorus
    F:----------------------------------------------------------------|
    C:----------------------------------------------------------------|
    G:--770707077--990909099--707077----------------------------------|
    D:----------------------------------99999999-9--------------------|
    
    Bridge
    F|----------------------------------------------------------------|
    C|----------------------------------------------------------------|
    G|----------------------------------------------------------------|
    D|----8-888888-8444-444------------------------------------------|…
Наверх