Аккорды «Pixies»

Pixies
Смешав неровно рычащие гитары и неустойчивый прерывистый ритм с мелодичными поп-мотивами, переплетая мужской и женский вокал в единое созвучие, снабдив песни восхитительной и загадочной лирикой, Pixies стали одной из наиболее влиятельных альтернативных рок-групп конца 80-х. Pixies не были изысканными музыкантами. Но это были изобретательные, фанатичные приверженцы рок-музыки, не просто вывернувшие наизнанку условности, а слившие воедино punk и indie, pop и surf-рок, добавившие концертных соло,… Читать полностью... Смешав неровно рычащие гитары и неустойчивый прерывистый ритм с мелодичными поп-мотивами, переплетая мужской и женский вокал в единое созвучие, снабдив песни восхитительной и загадочной лирикой, Pixies стали одной из наиболее влиятельных альтернативных рок-групп конца 80-х. Pixies не были изысканными музыкантами. Но это были изобретательные, фанатичные приверженцы рок-музыки, не просто вывернувшие наизнанку условности, а слившие воедино punk и indie, pop и surf-рок, добавившие концертных соло, что вместе с эксцентричной бессвязной лирикой составило неповторимый букет этой удивительной музыки. В то время, как смысл текстов о космических путешествиях, религии, сексе, инцесте, марихуане, серийных убийцах, вампирах, оборотнях, увечьях и поп-культуре был не очень понятен и доступен, собственно музыка была прямолинейна и проста. Назойливые, короткие песенки Pixies, их экстремальная динамика и разрушение песенных структур традиционной поп-музыки составили один из камней в фундаменте альтернативного рока 90-ых годов. От гранджа до брит-попа тень Pixies приняла прямо-таки угрожающие размеры: просто невозможно представить себе творчество Nirvana без тех же шатких галдящих гитарных соло или без коронной прерывистой динамики Pixies. В то время, как Pixies навязывались критиками в качестве коллектива, просто привнесшего indie-рок в мейнстрим, фактически, именно они заложили основу для известного прорыва всей альтернативной музыки в начале 90-ых. Несмотря на огромный вклад в развитие альтернативной культуры, проблемы Pixies весьма схожи с судьбами других альтернативных коллективов до-мейнстримной эпохи: МТV неохотно крутили их видеоклипы, и даже продвинутые рок-радиостанции не всегда ставили их песни в ротацию. Однако фатальными для группы оказались внутренние проблемы - разногласия между лидером группы Блэком Френсисом (Black Francis) и басисткой/вокалисткой Ким Дил (Kim Deal), которая хотела внести собственные песни в репертуар Pixies. В результате коллектив не смог вкусить в полной мере заслуженной славы: Pixies уже фактически развалились к тому времени, когда Nirvana снесла преграду между мейнстримом и альтернативой. Pixies были сформированы в Бостоне в 1986 году Чарльзом Томпсоном (Charles Thompson) и его колледжским соседом по комнате Джоуи Сантиаго (Joey Santiago). Томпсон начал играть музыку еще тинейджером, живя на родине, в Калифорнии. Во время обучения на отделении антропологии в Массачусетском университете он по обмену уехал в Пуэрто-Рико изучать испанский язык, но через 6 месяцев решил вернуться в Штаты, чтобы основать свою рок-группу. Умудрившись убедить своего соседа Джоуи войти в группу, Томпсон переехал с ним в Бостон. Они дали объявление в музыкальной газете о поиске басиста, который бы одновременно любил Hüsker Dü (игравших hardcore punk) и Peter, Paul & Mary (folk и classic rock). Тем не менее, третьим членом группы стала Ким Дил, на первых двух альбомах именовавшаяся как Mrs. John Murphey. До этого Ким играла на остановках дальнобойщиков вместе со своей сестрой-близняшкой Келли в folk-группе Breeders (в честь которой впоследствии была названа известная многим The Breeders). По совету Ким группа взяла барабанщика Дэвида Ловеринга (David Lovering). Вдохновленный Iggy Pop'ом, Томпсон взял сценический псевдоним Black Francis, а сформированная группа была названа The Pixies после того, как Джоуи Сантиаго случайно ткнул пальцем в словарь. Возможно, им понравилось значение слова ("маленький озорной эльф" в дословном переводе), или же они имели ввиду неявный смысл ("небрежно причесанная герла" на сленге). Кому как нравится, тот так и может понимать. К осени у Pixies было уже достаточно хорошо проработанных и интересных песен, чтобы выступать в качестве разогревающей группы для бостонского коллектива Throwing Muses. Гэри Смит (Gary Smith), артист-менеджер и продюсер бостонской студии Fort Apache, услышав Pixies на концерте, предложил им сделать демозапись. В марте 1987 года Pixies записали за три дня 18 песен, и получившаяся демо-лента Purple Tape была разослана ключевым фигурам бостонского музыкального сообщества и международной альтернативной сцены. Среди прослушавших запись оказался Иво Уоттс (Ivo Watts), глава английской звукозаписывающей студии 4AD Records. Впечатленный кассетой Уоттс предложил группе выпустить восемь песен с демо-ленты на EP Come On Pilgrim, что и было сделано в 1987 году. Свой первый полноценный альбом, названный Surfer Rosa, группа записала при помощи продюсера Стива Альбини (Steve Albini), легендарного лидера группы Big Black, который был первооткрывателем тонкого резкого звучания инди-гитар и позднее спродюсировал альбом Nirvana In Utero. Альбини помог освоить Pixies тот же резкий саунд, удивительным образом наложившийся на их забойные мотивчики. Выпущенный весной 1988 года, Surfer Rosa заслужил восторженные отзывы в британских музыкальных изданиях и вторгся в pop-чарты Англии; в Америке альбом стал студенческим хитом. К концу года Pixies уже постоянно были на слуху, и их пригласили на студию Elektra Records. С помощью продюсера Джила Нортона (Gil Norton) уже к весне 1989 года новый альбом Doolittle увидел свет. Эта запись оказалась более чистой по звучанию и получила отличные отзывы критиков, что способствовало взрывному росту популярности группы в Америке. Песни Monkey Gone to Heaven и Here Comes Your Man вошли в десятку лучших песен современного рока, помогая альбому достичь 98-го места по продажам в США и 8-го места в Британии. Вообще, на протяжении всего существования группы, она была более популярна в Британии и в Европе, нежели в Америке, что показал также и гастрольный тур Sex and Death, состоявшийся в поддержку альбома Doolittle. Pixies узнавались по характерной малоподвижной манере поведения Блэк Френсиса на сцене, которое оттенялось очаровательно-грубоватым чувством юмора Ким Дил. Сам тур запомнился зрителям скверными выходками вроде упорядочения концертного репертуара по алфавиту. К окончанию вторых гастролей по Америке в поддержку Doolittle в начале 1990 года, коллектив подустал друг от друга и решил взять каникулы. Во время отдыха Блэк Френсис провернул сольную программу, а Ким совместно с Таней Донелли (Tanya Donelly) из Throwing Muses и басисткой Джозефиной Уиггс (Josephine Wiggs) из Perfect Disaster сформировала новую группу, назвав ее The Breeders. The Breeders записали спродюсированный Альбини альбом Pod, который вышел в самом начале лета 1990-го года, как раз к тому времени, когда Pixies вновь собрались, чтобы записать свой третий альбом. Новый альбом группы Pixies, названный Bossanova и завершенный к осени 1990 года, получился более легким, нежели предшествующие, и опирался, главным образом, на увлечение Блэка Френсиса surf-роком. В отличие от Surfer Rosa и Doolittle, на новом альбоме не прозвучало ни одной песни Ким. Bossanova был встречен критиками неоднозначно, но, тем не менее, стал хитом в студенческом сообществе, а песни Velouria и Dig for Fire вошли в американский перечень лучших песен современного рока. Альбом достиг третьего места по продажам в Англии, и настолько повысил популярность коллектива в Европе, что группа стала ключевой командой на Reading Festival. Хотя гастроли в поддержку нового альбома были весьма успешными, напряжение между Ким и Блэк Френсисом продолжало нарастать, и на последнем концерте английских гастролей Ким двусмысленно сообщила со сцены, что этот концерт является последним выступлением группы. Несмотря на то, что Pixies отменили американский тур по причине "изнеможения" коллектива, они вновь собрались весной 1991 года для того, чтобы записать свой последний, четвертый по счету альбом. Многие восприняли этот последний альбом, Trompe le Monde, как благословенный возврат к звуку первых альбомов Surfer Rosa и Doolittle. Но более тщательный анализ выявляет схожесть только в отдельных музыкальных приемах и почти полное отсутствие вокала Ким. Характерно, что несмотря на явный взрыв ее творческой активности (в рамках The Breeders), на этом альбоме опять не оказалось ни одной ее песни. Pixies отправились в новое международное турне, ставшее последним, по окончании которого коллектив разошелся по своим делам: Ким вернулась в The Breeders и выпустила макси-сингл Safari, а Блэк Френсис начал работу над сольным альбомом. Во время подготовки своего сольного дебюта в начале 1993 года Блэк Френсис дал интервью радио BBC, объявив о роспуске Pixies. Только после этого он отправил факс членам группы с уведомлением об этом решении. Изменив свой сценический псевдоним на Frank Black, он выпустил одноименный альбом, который был совсем неоднозначно встречен критиками и публикой. На протяжении нескольких лет начальная аудитория Frank Black'а постепенно сжалась до группы фанатов. Тем временем The Breeders выпустили второй альбом Last Splash осенью 1993 года. Диск стал очень успешным, чему в значительной мере поспособствовал супер-успех предшествовавшего ему сингла Cannonball. Джоуи и Дэвид сформировали The Martinis в 1995 году, но к 1997 году группа появилась только на саундтреке Empire Records. Через 11 лет после распада, весной 2004 года, группа неожиданно объявила о воссоединении. 14 апреля они сыграли первый концерт, а затем устроили тур по Бразилии, Европе, Японии и США. В течение 4 лет Pixies периодически выступали на различных фестивалях, но отсутствие информации о новых альбомах породило слухи о том, что воссоединение было временным. Тем не менее, в конце августа 2008 года Блэк Френсис объявил, что альбом будет записан, и все зависит от желания остальных и наличия новых идей. Скрыть...
Популярные аккорды Pixies:
алфавиту | просмотрам | случайно
  • [INTRO]
     
      E  C#m  G#  A (4x)
         
      lead
    E|-----4-----4-|----4-----4-|-----4-----4-|-0--0----0--
    B|--5-----5----|-5-----5----|--4-----4----|-5--5p4--5--
    G|-------------|------------|-------------|------------
    D|-------------|------------|-------------|------------
    A|-------------|------------|-------------|------------
    E|-------------|------------|-------------|------------
    
    
    [VERSE…
  • Intro riff:
    
     E---------------------------------------------|
     B---------------------------------------------|
     G---------------------------------------------|
     D--------4--4--5---------------------0--2-----|
     A--5--5-----------0------2--0--0--4--------5--|…
  • Some chords you will need:
    
       Bbm  C#  F#  Ab  Bm  Bb  F
    ----1---4---2---4---2---1---1--|
    ----2---6---2---4---3---3---1--|
    ----3---6---3---5---4---3---2--|
    ----3---6---4---6---5---3---3--|
    ----1---4---4---6---2---1---3--|
    ------------2---4-----------1--|
    
    
    Opening…
  • |          Em                    G              B
    |___________________________________________________________
    |___________________________________________________________
    |.__________________________________________________________
    |._____________________2_____2___5_____4___2____4___________
    |_______3___2______2________________________________________
    |___0_______0_______________________________________________…
  • Verse
    G-------------------------------------------|
    D-------------------------------------------|
    A-------------------------------------------|
    E------33333333333333333333333--------------|
    
    Stripes on her eyes....
    No Bass
    
    Start…
  • D  A  C  G... Through whole song....
    
    Slow bit: D  C  F  G
    
    Lead Guitar:
    e  5555------------
    B  6666----8888----
    G  ----7-5-77777-5-
    D  -------7-------7
    A  ----------------
    E  ----------------
          bend    bend
    
    This is…
  • Main riff (on bass):
    
    ____________________________________________________
    ____________________________________________________
    ______________5__5__7__7__2__2__2__2__3__3__5__5____
    __3__3__3__3________________________________________
    
    
    and…
  • Bass
    
    		                            Chorus
    G|--------------|--------------------------|------------------------------------|
    D|--------------|--------------------------|------------------------------------|
    A|--------------|--5--5-5--2--2-2--5--5-5--|--5-5-5-5-5-5-5-5-2-2-2-2-2-2-2-2---|
    E|--0--2--2--5--|--------------------------|------------------------------------|…
  • Bass intro:
    G-----------------------------------#
    D-----------------------------------#
    A--1-1-1-1---------3-3-3-3----------#
    E----------1-1-1-1---------1-1-1-1--#
    
    
    rest of the song: (just repeat untill the song finishes)
    
    G---------------------------------------------------#
    D--0--0--0--0---------------------------------------#
    A--------------0--0--0--0--1--1--1--1--3--3--3--3---#
    E---------------------------------------------------#
    
    
    G--------------------------------------------------#
    D--------------------------------------0--0--0--0--#
    A--------------0--0--0--0--3--3--3--3--------------#
    E--1--1--1--1--------------------------------------#
    
    
    G--------------------------------------------------#
    D--------------------------------------------------#
    A--1--1--1--1--3--3--3--3--------------------3--3--#
    E--------------------------3--3--3--3--------------#…
  • C
    As soon as I get my head 'round you
    
    I come around catching sparks of you
    
    I get a little 'lectric charge from you
    
    A second hand living it just won't do
    
            F            G
    And the way I feel tonight
            C…
  • Intro: E
    
    Give me help
    Give me help
    You can... levitate me
    
    Then take off them rings
    Off them hose
    Levitate me
    
    Higher place
    G#m      A
    Levitate me
    
    Elevator lady  (4x)
     E    G#m     A
    Lady levitate me
    B(7fret)
    If all in…
  • Bm
    Bm
    hope everything is alright hope everything is alright
                                F#
    what's that floating in the water
    G            E
    oh neptune's only daughter
    D A     E
      i believe
    G7
      in mr. grieves
    Bm…
  • |--------------|--------------|--------------|--------------|
    |--------------|--------------|--------------|--------------|
    |--0--0--------|--------------|--------------|--------------|
    |--------------|--2--2--------|--0--0--0--0--|--2--2--------|
    
    
    |--------------|--------------|--------------|--------------|
    |--------------|--------------|--------------|--------------|
    |--0--0-h2-----|--------------|--------------|--------------|
    |-----------2--|--2--2--------|--0--0--0--0--|--2--2--------|…
  • INTRO:
    
      Guitar 1
    |-9-8-7---------------9-8-7-------------------------|
    |-7-----8-------------7-----8-8-7-------------------|
    |-7-------------------7-----------------------------|
    |-7-------------------7-----------------------------|
    |---------------------------------------------------|
    |---------------------------------------------------|
    |…
  • [Just bass]
    |---------------------------------------------------------------|
    |---------------------------------------------------------------|
    |-------------------0----1---2-----2--2-3-4-5---5--5------------|
    |-------2-------------------------------------------------------|…
  • Guitar comes in with bass:         Verse starts:
    
    BASS__________________________|________________________________________________
    ______________________________|_________________________2_2_2_2________________
    ______________________________|_________0_0_0_0_4_4_4_4_________2_2_2_2_4_4____
    _____2__2__2__2__2__2__2__2___|_2_2_2_2_____________________________________0_1
    
    BASS__________________________________________________________________
    ______________________________________________________________________
    ______________________________________________________________________
    ________2__2__2__2__2__2__2__2________________________________________
    
    Chorus…
  • Tune your guitar down a half step to play this one.  You'll
    need to hit the low E chord.
    ----
    E  C#m  A     E  C#m  A    E  C#m  A
    
    
    [Call this Rhythm Figure 1]
    
           C#m A  A	 E	 Abm   E
    --------4--5--5--5--------4----5---|
    --------5--5--5--7--------4----7---|
    ---8-9--6--6--6--7--8-9-8-4----7---|
    -6------6--7--7--7--------6----7---|
    --------4--7--7--5--------6----5---|
    -----------5--5-----------4--------|…
  • Hookayyy - Planet of Sound uses a drop D tuning, so tune yr low E to a
    D.
    
    The song uses only two chords - A5 and D5:
    
      A5  D5
    e---------|
    B---------|
    G--2------|
    D--2---0--|
    A--0---0--|
    D------0--|
    
    Start on A5, move to…
  • INTRO: G------------------------------------|
           B--15----14--12---14--12-12-----10---|
           E------------------------------------|
    
    CHORDS: F# D G D play 3 times.
    
    F#      D            G      D
       A pet  at my side,…
  • Chords :
    (Opening) C Em A Em C Em A Em
    (Verse) Em C F B7 Em C F B7
    Em A Em C Em A Em
    Em C F B7 Em C F B7
    Em A Em B Em A Em G A B7 Em
    (Bridge)
    A Em G Em A Em G B7
    C Em A Em C Em A Em
    (Verse)(with guitar solo)
    Em C F B7 Em…
  • INTRO : Gm Cm }X8
    
    VERSE1 : Now the sun is burning
             Am
    
             In deepest space
             Cm
    
             That's the way things are
             G                     E
    
             Through a storm I called you
             Am…
  • Still not sure what this one means (of course, that goes for
    most every Pixies song) but you could certainly guess that
    Black Francis isn't too crazy about his parents.  And of course
    I've murdered the lyrics again.
    
    
    Some…
  • Intro:   D
             G C G C Eb F
    
      G
    I stumbled out of bed
    
         Em
    I got ready for the struggle
    
      G
    I smoked a cigarette
    
         Em               D
    And I tightened up my gut
    
      C                  Am
    I said this can't be…
  • G                          C 
    Her head is in a bitter way
    A              F    B
    Her brain's on fire
    G                                      C 
    She's just looking for the perfect wave
    A                  F    B
    It's her brain's…
  • This is a song about a superhero named Tony
    It's called: Tony's Theme
    
    -2-2-2-2-2-2--------------------------------------------|
    -3-3-3-3-3-3--------------------------------------------|
    ----------------0-2-0-------0-2-0---0-2-0-------0-2-0---|
    --------------2-------2-2-2-------2-------2-2-2-------2-|
    --------------------------------------------------------|
    --------------------------------------------------------|…
  • [Call this Riff 1]
    ----------------------------------------------------|
    -9--9--10-9--9--9--10-9--9--9--10-9--9--9--10-9-----|
    -9--9--9--9--9--9--9--9--9--9--9--9--9--9--9--9-----|
    -9--9--9--9--9--9--9--9--9--9--9--9--9--9--9--9-----|
    ----------------------------------------------------|
    ----------------------------------------------------|
    
    [Riff…
  • E5      G5      Am  C   D
    ------------------0---0---2---|
    ------------------1---1---3---|
    ------------------2---0---2---|
    --2---2---5---5---2---2---0---|
    --2---4---5---7---0---3-------|
    --0---0---3---3-------0-------|…
  • The rhythm part is just B-A-C#, except for the chorus, which is     
            just C#.
        The bass just plays the name note of each chord, except for in the  
           chorus, when it plays this:
    
        G   ----------------------------------…
  • C                     Am
    i waited for you winterlong
                            F
    you seem to be where i belong
               G       F  C
    it's all illusion anyway
    
    
    if things should ever turn out wrong
    and all the love we have…
  • intro:  c-d-b-c with high e drone
    
    that little nifty melody line that begins each verse is : c b a g eg eg a /
                                                              c b a g eg e b c...
    
    the chords for the verse go:
    A…
  • G-----------------------------------------------------------
    D-----------------------------------------------------------
    A-----------------------3-3-3-3-----------------------------
    E-3-3-3-3-3-3-3-3------------2-2-2-2------------------------…
Наверх