Аккорды «Plankeye»

Популярные аккорды Plankeye:
алфавиту | просмотрам | случайно
  • -----------------|-----------------|-----------------|-----------------|------|
    -----------------|-----------------|-----------------|-----------------|------|
    -----------------|-----------------|-----------------|-----------------|------|
    -----------------|-----------------|-----------------|-----------------|-4x---|
    -9-9-9-9-9-7---5-|---5-5-5-5-5-5-5-|---------------7-|---7-7-7-7-7-7-7-|------|
    -----------------|-----------------|-5-5-5-5-5-5-5---|-----------------|------|…
  • -----------------|-----------------|------------------------------------------|
    -----------------|-----------------|------------------------------------------|
    -----------------|-----------------|-3x---------------------------------------|
    -----------------|-----------------|------------------------------------------|
    -7-7-7-7-5-5-5-3-|-3-3-3-3-5-5-5-5-|------------------------------------------|
    -----------------|-----------------|------------------------------------------|…
  • Chorus:
    
    G |---------------------------------------------|
    D |---------------------------------------------|
    A |-------------------5-5-5-5-5-5-5------------ |
    E |-5-5-5--7-7-7-7------------------------------|
    
    Do 2x
    
    Verse…
  • Intro and verse(if you choose to play it during the verse)
    g------------------------------------------------------------------------------
    d------------------------------------------------------------------------------
    a----3---3---3-45----3---3---3-------------------------------------------------
    e-22---2---2------22---2---2---33----------------------------------------------…
  • -----------------|-------------|--4x------------------------------------------
    -----------------|-------------|----------------------------------------------
    -0-2-2-2-2-------|-------------|----------------------------------------------
    -------------2-1-|-0---0-0---0-|----------------------------------------------…
  • -------------------|----------------------------------------------------------
    -------------------|----------------------------------------------------------
    -------------------|----------------------------------------------------------
    -------------------|-8x-------------------------------------------------------
    -----7-7--------5h7|----------------------------------------------------------
    -0-0-----0-0-/7----|----------------------------------------------------------…
Наверх