Аккорды Прикольные песни - Цыганочка

Добавлено: @romashka
Дата добавления: 09 Мая 2013г.
Рейтинг:
0.0
Просмотров: 657
Транспонировать - +
E|----------0-----|----------0-----|----------0-----|
B|--------3----3--|--------3----3--|--------2----2--|
G|------3------3--|------2------2--|------0------0--|
D|----0--------0--|----0--------0--|----2--------2--|
A|----------------|----------------|--0-------------|
E|--3-------------|--1-------------|----------------|

E|----1-0-----------|---------0---0---|----------0---0---|
B|--3-----3---------|-------3---3---3-|--------3---3---3-|
G|----------2-------|-----3-----------|------2-----------|
D|--0---------3-2-0-|---0-------------|----3-------------|
A|------------------|-------------1---|--0---------------|
E|------------------|-3---------------|--------------1---|

E|----------1-0-----|------------------|---------0-----|
B|--------2-----3-2-|--3---------------|-------3----3--|
G|------0-----------|----2-------------|-----3------3--|
D|----2-------------|--0---3-2-0-------|---0--------0--|
A|----------0-------|------------3-1-0-|---------------|
E|--0---------------|------------------|-3-------------|

E|----------0-----|----------0-----|----1-0-----------|
B|--------3----3--|--------2----2--|--3-----3---------|
G|------2------2--|------0------0--|----------2-------|
D|----0--------0--|----2--------2--|--0---------3-2-0-|
A|----------------|--0-------------|------------------|
E|--1-------------|----------------|------------------|

E|---------0---0---|----------0---0---|----------1-0-----|
B|-------3---3---3-|--------3---3---3-|--------2-----3-2-|
G|-----3-----------|------2-----------|------0-----------|
D|---0-------------|----3-------------|----2-------------|
A|-------------1---|--0---------------|----------0-------|
E|-3---------------|--------------1---|--0---------------|

E|------------------|----0-----0--|-----0--------|----0-----0--|
B|--3---------------|----3-----3--|-----3-----3--|----2-----2--|
G|----2-------------|----3-----0--|-----2-----2--|----3-----3--|
D|--0---3-2-0-------|-------------|-----------0--|-------------|
A|------------3-1-0-|-------1-----|--0-----------|-------------|
E|------------------|-3-----------|--------1-----|-0-----3-----|

E|-----0--------|-----0-------|----0--------|-----0-----0--|
B|-----3-----3--|-----3-----3-|----3-----3--|-----3--------|
G|-----2-----5--|-----3-----3-|----2-----0--|-----1-----0--|
D|-----------0--|-----------0-|----------0--|--------------|
A|--------------|-------------|-0-----1-----|--2-----4-----|
E|--1-----2-----|--3-----4----|-------------|--------------|

E|-----0--------|-----0-----0--|-----0-------|----0-----0--|
B|-----3-----3--|-----3-----3--|-----3-----3-|----2-----2--|
G|-----2-----2--|-----3-----0--|-----2-----2-|----3-----3--|
D|--0--------0--|--------------|-----------0-|-------------|
A|--------------|--------1-----|--0----------|-------------|
E|--------1-----|--3-----------|--------1----|-0-----3-----|

E|-----0--------|-----0--------|-----0--------|-----0-----0-|
B|-----3-----3--|-----3-----3--|-----3-----3--|-----3-------|
G|-----2-----5--|-----3-----3--|-----2-----0--|-----1-----0-|
D|-----------0--|-----------0--|-----------0--|-------------|
A|--------------|--------------|--0-----1-----|--2-----4----|
E|--1-----2-----|--3-----4-----|--------------|-------------|

E|----0-------|---------0-----|----------0-----|----------0----|
B|----3-----3-|---3--------3--|----3--------3--|----2--------2-|
G|----2-----2-|-----3------3--|------2------2--|------0------0-|
D|-0--------0-|-------0-------|--------0-------|--------2------|
A|------------|---------------|----------------|--0-------0----|
E|-------1----|-3-------3-----|--1-------1-----|---------------|

E|---------0----|---0-----0----|---0-----0-----|----------0----|
B|---3-0------3-|-----3------3-|-----3------3--|----2--------2-|
G|------------4-|-------3----0-|-------2----2--|------0------0-|
D|-------3------|--------------|---------------|--------2------|
A|--------------|---------1----|-0-------------|----------0----|
E|-4-------4----|-3------------|---------1-----|--0------------|

E|--------0------|----------0----|---------0----|---------0----|
B|--------3------|----3--------3-|---3--------3-|---2--------2-|
G|--------2------|------3------3-|-----2------2-|-----0------0-|
D|-0------3------|--------0------|-------0------|-------2------|
A|---------------|---------------|--------------|-0-------0----|
E|---------------|--3-------3----|-1-------1----|--------------|

E|---------0-----|----0-----0----|---0-----0----|---------0----|
B|---3-0------3--|------3------3-|-----3------3-|---2--------2-|
G|------------4--|--------3----0-|-------2----2-|-----0------0-|
D|-------3-------|---------------|--------------|-------2------|
A|---------------|----------1----|-0------------|---------0----|
E|-4-------4-----|--3------------|---------1----|-0------------|

E|--------0-|
B|--------3-|
G|--------2-|
D|-0------3-|
A|----------|
E|----------|

Дополнение:
Dm Am E Am
E|---------1—3-1---------0-1-0------0--------------------0-1-0-|
B|------3----------------1------------0---3-0-------------1----|
G|---2----------------2-------------1-------------------2------|
D|-0-----------------------------------------------------------|
A|----------------0-------------2-----------------0------------|
E|-------------------------------------------------------------|
comments powered by Disqus
Наверх