Аккорды «Qbo»

Популярные аккорды Qbo:
алфавиту | просмотрам | случайно
  • qbo: no mas : tab complete
    -------------------------------------------------|
    --2222-2222-22-2222-2222-------------------------|x2
    -------------------------------------------------|
    -------------------------3-----------------------|…
  • En esta rola, la sexta cuerda еsтб en RE (D).
    
    Clave:
    / = deslizar
    * = palm mute
    
    e|---------------------------------------------------------|
    B|---------------------------------------------------------|
    G|-12-----------------11-----------------12----------------|
    D|-12-9-9-9-99999999--11-9-9-9-99999999--12-9-9-9-99999999-|
    A|-10-9-9-9-99999999--9--9-9-9-99999999--10-9-9-9-99999999-|
    D|----9-9-9-99999999-----9-9-9-99999999-----9-9-9-99999999-|…
  • En esta rola, la guitarra se afina en :
    
     B, F#, B, E, G#, C#. 
    
    Esta muy facil, solo toquenla con el ritmo de la musica.
    
    Clave:  p.m. у *=palm mute
            h=hammer on
    
       [intro]x2      (con un delay)
    C#|-13-13h12h13h12----------------|
    G#|----------------13-------------|
    E…
  • 1)	C#
    2)	G#
    3)	E
    4)	B
    5)	F#
    6)	B
    
    Clave:
    ( ): наrmуniсо
      h: hammer on
      p: pull off
    p.m.: palm mute
    
    C#|---------------------------|
    G#|---------------------------|
    E |---------------------------|
    B |-2(2)(2)(2)--2(2)-2(2)-2-2-|…
Наверх